  0
SECTION
  2
HEADER
  9
$ACADVER
  1
AC1021
  9
$ACADMAINTVER
 70
    25
  9
$DWGCODEPAGE
  3
ANSI_1252
  9
$INSBASE
 10
0.0
 20
0.0
 30
0.0
  9
$EXTMIN
 10
1.000000000000000E+20
 20
1.000000000000000E+20
 30
1.000000000000000E+20
  9
$EXTMAX
 10
-1.000000000000000E+20
 20
-1.000000000000000E+20
 30
-1.000000000000000E+20
  9
$LIMMIN
 10
0.0
 20
0.0
  9
$LIMMAX
 10
420.0
 20
297.0
  9
$ORTHOMODE
 70
     0
  9
$REGENMODE
 70
     1
  9
$FILLMODE
 70
     1
  9
$QTEXTMODE
 70
     0
  9
$MIRRTEXT
 70
     1
  9
$LTSCALE
 40
1.0
  9
$ATTMODE
 70
     1
  9
$TEXTSIZE
 40
2.5
  9
$TRACEWID
 40
1.0
  9
$TEXTSTYLE
  7
Standard
  9
$CLAYER
  8
0
  9
$CELTYPE
  6
ByLayer
  9
$CECOLOR
 62
   256
  9
$CELTSCALE
 40
1.0
  9
$DISPSILH
 70
     0
  9
$DIMSCALE
 40
1.0
  9
$DIMASZ
 40
3.0
  9
$DIMEXO
 40
0.625
  9
$DIMDLI
 40
3.75
  9
$DIMRND
 40
0.0
  9
$DIMDLE
 40
0.0
  9
$DIMEXE
 40
1.25
  9
$DIMTP
 40
0.0
  9
$DIMTM
 40
0.0
  9
$DIMTXT
 40
2.085798611111111
  9
$DIMCEN
 40
2.5
  9
$DIMTSZ
 40
0.0
  9
$DIMTOL
 70
     0
  9
$DIMLIM
 70
     0
  9
$DIMTIH
 70
     0
  9
$DIMTOH
 70
     0
  9
$DIMSE1
 70
     0
  9
$DIMSE2
 70
     0
  9
$DIMTAD
 70
     1
  9
$DIMZIN
 70
     8
  9
$DIMBLK
  1

  9
$DIMASO
 70
     1
  9
$DIMSHO
 70
     1
  9
$DIMPOST
  1

  9
$DIMAPOST
  1

  9
$DIMALT
 70
     0
  9
$DIMALTD
 70
     3
  9
$DIMALTF
 40
0.03937007874016
  9
$DIMLFAC
 40
1.0
  9
$DIMTOFL
 70
     1
  9
$DIMTVP
 40
0.0
  9
$DIMTIX
 70
     0
  9
$DIMSOXD
 70
     0
  9
$DIMSAH
 70
     0
  9
$DIMBLK1
  1

  9
$DIMBLK2
  1

  9
$DIMSTYLE
  2
ISO-25
  9
$DIMCLRD
 70
     0
  9
$DIMCLRE
 70
     0
  9
$DIMCLRT
 70
     0
  9
$DIMTFAC
 40
1.0
  9
$DIMGAP
 40
0.625
  9
$DIMJUST
 70
     0
  9
$DIMSD1
 70
     0
  9
$DIMSD2
 70
     0
  9
$DIMTOLJ
 70
     0
  9
$DIMTZIN
 70
     8
  9
$DIMALTZ
 70
     0
  9
$DIMALTTZ
 70
     0
  9
$DIMUPT
 70
     0
  9
$DIMDEC
 70
     2
  9
$DIMTDEC
 70
     2
  9
$DIMALTU
 70
     2
  9
$DIMALTTD
 70
     3
  9
$DIMTXSTY
  7
Standard
  9
$DIMAUNIT
 70
     0
  9
$DIMADEC
 70
     0
  9
$DIMALTRND
 40
0.0
  9
$DIMAZIN
 70
     0
  9
$DIMDSEP
 70
    44
  9
$DIMATFIT
 70
     3
  9
$DIMFRAC
 70
     0
  9
$DIMLDRBLK
  1

  9
$DIMLUNIT
 70
     2
  9
$DIMLWD
 70
    -2
  9
$DIMLWE
 70
    -2
  9
$DIMTMOVE
 70
     0
  9
$DIMFXL
 40
1.0
  9
$DIMFXLON
 70
     0
  9
$DIMJOGANG
 40
0.7853981633974483
  9
$DIMTFILL
 70
     0
  9
$DIMTFILLCLR
 70
     0
  9
$DIMARCSYM
 70
     0
  9
$DIMLTYPE
  6

  9
$DIMLTEX1
  6

  9
$DIMLTEX2
  6

  9
$LUNITS
 70
     2
  9
$LUPREC
 70
     4
  9
$SKETCHINC
 40
1.0
  9
$FILLETRAD
 40
10.0
  9
$AUNITS
 70
     0
  9
$AUPREC
 70
     0
  9
$MENU
  1
.
  9
$ELEVATION
 40
0.0
  9
$PELEVATION
 40
0.0
  9
$THICKNESS
 40
0.0
  9
$LIMCHECK
 70
     0
  9
$CHAMFERA
 40
10.0
  9
$CHAMFERB
 40
10.0
  9
$CHAMFERC
 40
20.0
  9
$CHAMFERD
 40
0.0
  9
$SKPOLY
 70
     0
  9
$TDCREATE
 40
2455237.001879745
  9
$TDUCREATE
 40
2455236.960213079
  9
$TDUPDATE
 40
2455237.001879757
  9
$TDUUPDATE
 40
2455236.96021309
  9
$TDINDWG
 40
0.0000000116
  9
$TDUSRTIMER
 40
0.0000000116
  9
$USRTIMER
 70
     1
  9
$ANGBASE
 50
0.0
  9
$ANGDIR
 70
     0
  9
$PDMODE
 70
     0
  9
$PDSIZE
 40
0.0
  9
$PLINEWID
 40
0.0
  9
$SPLFRAME
 70
     0
  9
$SPLINETYPE
 70
     6
  9
$SPLINESEGS
 70
     8
  9
$HANDSEED
  5
2E2
  9
$SURFTAB1
 70
     6
  9
$SURFTAB2
 70
     6
  9
$SURFTYPE
 70
     6
  9
$SURFU
 70
     6
  9
$SURFV
 70
     6
  9
$UCSBASE
  2

  9
$UCSNAME
  2

  9
$UCSORG
 10
0.0
 20
0.0
 30
0.0
  9
$UCSXDIR
 10
1.0
 20
0.0
 30
0.0
  9
$UCSYDIR
 10
0.0
 20
1.0
 30
0.0
  9
$UCSORTHOREF
  2

  9
$UCSORTHOVIEW
 70
     0
  9
$UCSORGTOP
 10
0.0
 20
0.0
 30
0.0
  9
$UCSORGBOTTOM
 10
0.0
 20
0.0
 30
0.0
  9
$UCSORGLEFT
 10
0.0
 20
0.0
 30
0.0
  9
$UCSORGRIGHT
 10
0.0
 20
0.0
 30
0.0
  9
$UCSORGFRONT
 10
0.0
 20
0.0
 30
0.0
  9
$UCSORGBACK
 10
0.0
 20
0.0
 30
0.0
  9
$PUCSBASE
  2

  9
$PUCSNAME
  2

  9
$PUCSORG
 10
0.0
 20
0.0
 30
0.0
  9
$PUCSXDIR
 10
1.0
 20
0.0
 30
0.0
  9
$PUCSYDIR
 10
0.0
 20
1.0
 30
0.0
  9
$PUCSORTHOREF
  2

  9
$PUCSORTHOVIEW
 70
     0
  9
$PUCSORGTOP
 10
0.0
 20
0.0
 30
0.0
  9
$PUCSORGBOTTOM
 10
0.0
 20
0.0
 30
0.0
  9
$PUCSORGLEFT
 10
0.0
 20
0.0
 30
0.0
  9
$PUCSORGRIGHT
 10
0.0
 20
0.0
 30
0.0
  9
$PUCSORGFRONT
 10
0.0
 20
0.0
 30
0.0
  9
$PUCSORGBACK
 10
0.0
 20
0.0
 30
0.0
  9
$USERI1
 70
     0
  9
$USERI2
 70
     0
  9
$USERI3
 70
     0
  9
$USERI4
 70
     0
  9
$USERI5
 70
     0
  9
$USERR1
 40
0.0
  9
$USERR2
 40
0.0
  9
$USERR3
 40
0.0
  9
$USERR4
 40
0.0
  9
$USERR5
 40
0.0
  9
$WORLDVIEW
 70
     1
  9
$SHADEDGE
 70
     3
  9
$SHADEDIF
 70
    70
  9
$TILEMODE
 70
     1
  9
$MAXACTVP
 70
    64
  9
$PINSBASE
 10
0.0
 20
0.0
 30
0.0
  9
$PLIMCHECK
 70
     0
  9
$PEXTMIN
 10
1.000000000000000E+20
 20
1.000000000000000E+20
 30
1.000000000000000E+20
  9
$PEXTMAX
 10
-1.000000000000000E+20
 20
-1.000000000000000E+20
 30
-1.000000000000000E+20
  9
$PLIMMIN
 10
0.0
 20
0.0
  9
$PLIMMAX
 10
420.0
 20
297.0
  9
$UNITMODE
 70
     0
  9
$VISRETAIN
 70
     1
  9
$PLINEGEN
 70
     0
  9
$PSLTSCALE
 70
     1
  9
$TREEDEPTH
 70
  3020
  9
$CMLSTYLE
  2
Standard
  9
$CMLJUST
 70
     0
  9
$CMLSCALE
 40
20.0
  9
$PROXYGRAPHICS
 70
     1
  9
$MEASUREMENT
 70
     1
  9
$CELWEIGHT
370
    -1
  9
$ENDCAPS
280
     0
  9
$JOINSTYLE
280
     0
  9
$LWDISPLAY
290
     0
  9
$INSUNITS
 70
     4
  9
$HYPERLINKBASE
  1

  9
$STYLESHEET
  1

  9
$XEDIT
290
     1
  9
$CEPSNTYPE
380
     0
  9
$PSTYLEMODE
290
     1
  9
$FINGERPRINTGUID
  2
{99F04751-ECA1-438F-BE04-A5E83A8F6570}
  9
$VERSIONGUID
  2
{FAEB1C32-E019-11D5-929B-00C0DF256EC4}
  9
$EXTNAMES
290
     1
  9
$PSVPSCALE
 40
0.0
  9
$OLESTARTUP
290
     0
  9
$SORTENTS
280
   127
  9
$INDEXCTL
280
     0
  9
$HIDETEXT
280
     1
  9
$XCLIPFRAME
290
     0
  9
$HALOGAP
280
     0
  9
$OBSCOLOR
 70
   257
  9
$OBSLTYPE
280
     0
  9
$INTERSECTIONDISPLAY
280
     0
  9
$INTERSECTIONCOLOR
 70
   257
  9
$DIMASSOC
280
     2
  9
$PROJECTNAME
  1

  9
$CAMERADISPLAY
290
     0
  9
$LENSLENGTH
 40
50.0
  9
$CAMERAHEIGHT
 40
0.0
  9
$STEPSPERSEC
 40
2.0
  9
$STEPSIZE
 40
6.0
  9
$3DDWFPREC
 40
2.0
  9
$PSOLWIDTH
 40
5.0
  9
$PSOLHEIGHT
 40
80.0
  9
$LOFTANG1
 40
1.570796326794897
  9
$LOFTANG2
 40
1.570796326794897
  9
$LOFTMAG1
 40
0.0
  9
$LOFTMAG2
 40
0.0
  9
$LOFTPARAM
 70
     7
  9
$LOFTNORMALS
280
     1
  9
$LATITUDE
 40
37.795
  9
$LONGITUDE
 40
-122.394
  9
$NORTHDIRECTION
 40
0.0
  9
$TIMEZONE
 70
 -8000
  9
$LIGHTGLYPHDISPLAY
280
     1
  9
$TILEMODELIGHTSYNCH
280
     1
  9
$SOLIDHIST
280
     1
  9
$SHOWHIST
280
     1
  9
$DWFFRAME
280
     2
  9
$DGNFRAME
280
     2
  9
$REALWORLDSCALE
290
     1
  9
$INTERFERECOLOR
 62
   256
  9
$CSHADOW
280
     0
  9
$SHADOWPLANELOCATION
 40
0.0
  0
ENDSEC
  0
SECTION
  2
CLASSES
  0
CLASS
  1
ACDBDICTIONARYWDFLT
  2
AcDbDictionaryWithDefault
  3
ObjectDBX Classes
 90
        0
 91
        3
280
     0
281
     0
  0
CLASS
  1
VISUALSTYLE
  2
AcDbVisualStyle
  3
ObjectDBX Classes
 90
     4095
 91
        3
280
     0
281
     0
  0
CLASS
  1
SCALE
  2
AcDbScale
  3
ObjectDBX Classes
 90
     1153
 91
        3
280
     0
281
     0
  0
ENDSEC
  0
SECTION
  2
TABLES
  0
TABLE
  2
VPORT
  5
8
330
0
100
AcDbSymbolTable
 70
     1
  0
VPORT
  5
29
330
8
100
AcDbSymbolTableRecord
100
AcDbViewportTableRecord
  2
*Active
 70
     0
 10
0.0
 20
0.0
 11
1.0
 21
1.0
 12
344.1869158878504
 22
148.5
 13
0.0
 23
0.0
 14
10.0
 24
10.0
 15
10.0
 25
10.0
 16
0.0
 26
0.0
 36
1.0
 17
0.0
 27
0.0
 37
0.0
 40
297.0
 41
1.972972972850329
 42
50.0
 43
0.0
 44
0.0
 50
0.0
 51
0.0
 71
     0
 72
   100
 73
     1
 74
     3
 75
     0
 76
     0
 77
     0
 78
     0
281
     0
 65
     1
110
0.0
120
0.0
130
0.0
111
1.0
121
0.0
131
0.0
112
0.0
122
1.0
132
0.0
 79
     0
146
0.0
 60
     3
 61
     5
292
     1
282
     1
141
0.0
142
0.0
 63
   256
  0
ENDTAB
  0
TABLE
  2
LTYPE
  5
5
330
0
100
AcDbSymbolTable
 70
     1
  0
LTYPE
  5
14
330
5
100
AcDbSymbolTableRecord
100
AcDbLinetypeTableRecord
  2
ByBlock
 70
     0
  3

 72
    65
 73
     0
 40
0.0
  0
LTYPE
  5
15
330
5
100
AcDbSymbolTableRecord
100
AcDbLinetypeTableRecord
  2
ByLayer
 70
     0
  3

 72
    65
 73
     0
 40
0.0
  0
LTYPE
  5
16
330
5
100
AcDbSymbolTableRecord
100
AcDbLinetypeTableRecord
  2
Continuous
 70
     0
  3
Solid line
 72
    65
 73
     0
 40
0.0
  0
ENDTAB
  0
TABLE
  2
LAYER
  5
2
330
0
100
AcDbSymbolTable
 70
     5
  0
LAYER
  5
10
330
2
100
AcDbSymbolTableRecord
100
AcDbLayerTableRecord
  2
0
 70
     0
 62
     7
  6
Continuous
370
    -3
390
F
347
0
  0
LAYER
  5
5D
330
2
100
AcDbSymbolTableRecord
100
AcDbLayerTableRecord
  2
VISIBLE
 70
     0
 62
     7
  6
Continuous
370
     0
390
F
347
0
  0
LAYER
  5
8B
330
2
100
AcDbSymbolTableRecord
100
AcDbLayerTableRecord
  2
TANGENT EDGES
 70
     0
 62
     7
  6
Continuous
370
     0
390
F
347
0
  0
LAYER
  5
10A
330
2
100
AcDbSymbolTableRecord
100
AcDbLayerTableRecord
  2
DIMENSIONS
 70
     0
 62
     7
  6
Continuous
370
     0
390
F
347
0
  0
LAYER
  5
291
330
2
100
AcDbSymbolTableRecord
100
AcDbLayerTableRecord
  2
CONTINUOUS
 70
     0
 62
     7
  6
Continuous
370
     0
390
F
347
0
  0
ENDTAB
  0
TABLE
  2
STYLE
  5
3
330
0
100
AcDbSymbolTable
 70
     1
  0
STYLE
  5
11
330
3
100
AcDbSymbolTableRecord
100
AcDbTextStyleTableRecord
  2
Standard
 70
     0
 40
0.125
 41
1.0
 50
0.0
 71
     0
 42
2.5
  3
txt
  4

1001
ACAD
1000
Arial
1071
        0
  0
ENDTAB
  0
TABLE
  2
VIEW
  5
6
330
0
100
AcDbSymbolTable
 70
     0
  0
ENDTAB
  0
TABLE
  2
UCS
  5
7
330
0
100
AcDbSymbolTable
 70
     0
  0
ENDTAB
  0
TABLE
  2
APPID
  5
9
330
0
100
AcDbSymbolTable
 70
     1
  0
APPID
  5
12
330
9
100
AcDbSymbolTableRecord
100
AcDbRegAppTableRecord
  2
ACAD
 70
     0
  0
ENDTAB
  0
TABLE
  2
DIMSTYLE
  5
A
330
0
100
AcDbSymbolTable
 70
     1
100
AcDbDimStyleTable
  0
DIMSTYLE
105
27
330
A
100
AcDbSymbolTableRecord
100
AcDbDimStyleTableRecord
  2
ISO-25
 70
     0
 41
2.5
 42
0.625
 43
3.75
 44
1.25
 73
     0
 74
     0
 77
     1
 78
     8
140
2.5
141
2.5
143
0.03937007874016
147
0.625
171
     3
172
     1
271
     2
272
     2
274
     3
278
    44
283
     0
284
     8
340
11
  0
ENDTAB
  0
TABLE
  2
BLOCK_RECORD
  5
1
330
0
100
AcDbSymbolTable
 70
    28
  0
BLOCK_RECORD
  5
1F
330
1
100
AcDbSymbolTableRecord
100
AcDbBlockTableRecord
  2
*Model_Space
340
22
 70
     0
280
     1
281
     0
  0
BLOCK_RECORD
  5
1B
330
1
100
AcDbSymbolTableRecord
100
AcDbBlockTableRecord
  2
*Paper_Space
340
1E
 70
     0
280
     1
281
     0
  0
BLOCK_RECORD
  5
23
330
1
100
AcDbSymbolTableRecord
100
AcDbBlockTableRecord
  2
*Paper_Space0
340
26
 70
     0
280
     1
281
     0
  0
BLOCK_RECORD
  5
10C
330
1
100
AcDbSymbolTableRecord
100
AcDbBlockTableRecord
  2
BLOCK1
340
0
102
{BLKREFS
331
10B
102
}
 70
     0
280
     1
281
     0
  0
BLOCK_RECORD
  5
11B
330
1
100
AcDbSymbolTableRecord
100
AcDbBlockTableRecord
  2
BLOCK2
340
0
102
{BLKREFS
331
11A
102
}
 70
     0
280
     1
281
     0
  0
BLOCK_RECORD
  5
12A
330
1
100
AcDbSymbolTableRecord
100
AcDbBlockTableRecord
  2
BLOCK3
340
0
102
{BLKREFS
331
129
102
}
 70
     0
280
     1
281
     0
  0
BLOCK_RECORD
  5
139
330
1
100
AcDbSymbolTableRecord
100
AcDbBlockTableRecord
  2
BLOCK4
340
0
102
{BLKREFS
331
138
102
}
 70
     0
280
     1
281
     0
  0
BLOCK_RECORD
  5
148
330
1
100
AcDbSymbolTableRecord
100
AcDbBlockTableRecord
  2
BLOCK5
340
0
102
{BLKREFS
331
147
102
}
 70
     0
280
     1
281
     0
  0
BLOCK_RECORD
  5
157
330
1
100
AcDbSymbolTableRecord
100
AcDbBlockTableRecord
  2
BLOCK6
340
0
102
{BLKREFS
331
156
102
}
 70
     0
280
     1
281
     0
  0
BLOCK_RECORD
  5
166
330
1
100
AcDbSymbolTableRecord
100
AcDbBlockTableRecord
  2
BLOCK7
340
0
102
{BLKREFS
331
165
102
}
 70
     0
280
     1
281
     0
  0
BLOCK_RECORD
  5
175
330
1
100
AcDbSymbolTableRecord
100
AcDbBlockTableRecord
  2
BLOCK8
340
0
102
{BLKREFS
331
174
102
}
 70
     0
280
     1
281
     0
  0
BLOCK_RECORD
  5
184
330
1
100
AcDbSymbolTableRecord
100
AcDbBlockTableRecord
  2
BLOCK9
340
0
102
{BLKREFS
331
183
102
}
 70
     0
280
     1
281
     0
  0
BLOCK_RECORD
  5
193
330
1
100
AcDbSymbolTableRecord
100
AcDbBlockTableRecord
  2
BLOCK10
340
0
102
{BLKREFS
331
192
102
}
 70
     0
280
     1
281
     0
  0
BLOCK_RECORD
  5
1A2
330
1
100
AcDbSymbolTableRecord
100
AcDbBlockTableRecord
  2
BLOCK11
340
0
102
{BLKREFS
331
1A1
102
}
 70
     0
280
     1
281
     0
  0
BLOCK_RECORD
  5
1B1
330
1
100
AcDbSymbolTableRecord
100
AcDbBlockTableRecord
  2
BLOCK12
340
0
102
{BLKREFS
331
1B0
102
}
 70
     0
280
     1
281
     0
  0
BLOCK_RECORD
  5
1C0
330
1
100
AcDbSymbolTableRecord
100
AcDbBlockTableRecord
  2
BLOCK13
340
0
102
{BLKREFS
331
1BF
102
}
 70
     0
280
     1
281
     0
  0
BLOCK_RECORD
  5
1CF
330
1
100
AcDbSymbolTableRecord
100
AcDbBlockTableRecord
  2
BLOCK14
340
0
102
{BLKREFS
331
1CE
102
}
 70
     0
280
     1
281
     0
  0
BLOCK_RECORD
  5
1DE
330
1
100
AcDbSymbolTableRecord
100
AcDbBlockTableRecord
  2
BLOCK15
340
0
102
{BLKREFS
331
1DD
102
}
 70
     0
280
     1
281
     0
  0
BLOCK_RECORD
  5
1ED
330
1
100
AcDbSymbolTableRecord
100
AcDbBlockTableRecord
  2
BLOCK16
340
0
102
{BLKREFS
331
1EC
102
}
 70
     0
280
     1
281
     0
  0
BLOCK_RECORD
  5
1FC
330
1
100
AcDbSymbolTableRecord
100
AcDbBlockTableRecord
  2
BLOCK17
340
0
102
{BLKREFS
331
1FB
102
}
 70
     0
280
     1
281
     0
  0
BLOCK_RECORD
  5
20B
330
1
100
AcDbSymbolTableRecord
100
AcDbBlockTableRecord
  2
BLOCK18
340
0
102
{BLKREFS
331
20A
102
}
 70
     0
280
     1
281
     0
  0
BLOCK_RECORD
  5
21A
330
1
100
AcDbSymbolTableRecord
100
AcDbBlockTableRecord
  2
BLOCK19
340
0
102
{BLKREFS
331
219
102
}
 70
     0
280
     1
281
     0
  0
BLOCK_RECORD
  5
229
330
1
100
AcDbSymbolTableRecord
100
AcDbBlockTableRecord
  2
BLOCK20
340
0
102
{BLKREFS
331
228
102
}
 70
     0
280
     1
281
     0
  0
BLOCK_RECORD
  5
238
330
1
100
AcDbSymbolTableRecord
100
AcDbBlockTableRecord
  2
BLOCK21
340
0
102
{BLKREFS
331
237
102
}
 70
     0
280
     1
281
     0
  0
BLOCK_RECORD
  5
247
330
1
100
AcDbSymbolTableRecord
100
AcDbBlockTableRecord
  2
BLOCK22
340
0
102
{BLKREFS
331
246
102
}
 70
     0
280
     1
281
     0
  0
BLOCK_RECORD
  5
256
330
1
100
AcDbSymbolTableRecord
100
AcDbBlockTableRecord
  2
BLOCK23
340
0
102
{BLKREFS
331
255
102
}
 70
     0
280
     1
281
     0
  0
BLOCK_RECORD
  5
265
330
1
100
AcDbSymbolTableRecord
100
AcDbBlockTableRecord
  2
BLOCK24
340
0
102
{BLKREFS
331
264
102
}
 70
     0
280
     1
281
     0
  0
BLOCK_RECORD
  5
274
330
1
100
AcDbSymbolTableRecord
100
AcDbBlockTableRecord
  2
BLOCK25
340
0
102
{BLKREFS
331
273
102
}
 70
     0
280
     1
281
     0
  0
BLOCK_RECORD
  5
283
330
1
100
AcDbSymbolTableRecord
100
AcDbBlockTableRecord
  2
BLOCK26
340
0
102
{BLKREFS
331
282
102
}
 70
     0
280
     1
281
     0
  0
BLOCK_RECORD
  5
293
330
1
100
AcDbSymbolTableRecord
100
AcDbBlockTableRecord
  2
BLOCK27
340
0
102
{BLKREFS
331
292
102
}
 70
     0
280
     1
281
     0
  0
ENDTAB
  0
ENDSEC
  0
SECTION
  2
BLOCKS
  0
BLOCK
  5
20
330
1F
100
AcDbEntity
  8
0
100
AcDbBlockBegin
  2
*Model_Space
 70
     0
 10
0.0
 20
0.0
 30
0.0
  3
*Model_Space
  1

  0
ENDBLK
  5
21
330
1F
100
AcDbEntity
  8
0
100
AcDbBlockEnd
  0
BLOCK
  5
1C
330
1B
100
AcDbEntity
 67
     1
  8
0
100
AcDbBlockBegin
  2
*Paper_Space
 70
     0
 10
0.0
 20
0.0
 30
0.0
  3
*Paper_Space
  1

  0
ENDBLK
  5
1D
330
1B
100
AcDbEntity
 67
     1
  8
0
100
AcDbBlockEnd
  0
BLOCK
  5
24
330
23
100
AcDbEntity
  8
0
100
AcDbBlockBegin
  2
*Paper_Space0
 70
     0
 10
0.0
 20
0.0
 30
0.0
  3
*Paper_Space0
  1

  0
ENDBLK
  5
25
330
23
100
AcDbEntity
  8
0
100
AcDbBlockEnd
  0
BLOCK
  5
10D
330
10C
100
AcDbEntity
  8
0
100
AcDbBlockBegin
  2
BLOCK1
 70
     0
 10
0.0
 20
0.0
 30
0.0
  3
BLOCK1
  1

  0
LINE
  5
10F
330
10C
100
AcDbEntity
  8
DIMENSIONS
100
AcDbLine
 10
105.6961357813479
 20
133.2779729948922
 30
0.0
 11
107.753504136218
 21
136.8414395154129
 31
0.0
  0
LINE
  5
110
330
10C
100
AcDbEntity
  8
DIMENSIONS
100
AcDbLine
 10
102.0588290854663
 20
135.3779729948752
 30
0.0
 11
104.1161974403402
 21
138.9414395154025
 31
0.0
  0
LINE
  5
111
330
10C
100
AcDbEntity
  8
DIMENSIONS
100
AcDbLine
 10
106.7535041362183
 20
135.1093887078439
 30
0.0
 11
109.6015803475717
 21
134.0424014097366
 31
0.0
  0
LINE
  5
112
330
10C
100
AcDbEntity
  8
DIMENSIONS
100
AcDbLine
 10
109.6015803475717
 20
134.0424014097366
 30
0.0
 11
109.1015803475719
 21
133.176376005952
 31
0.0
  0
LINE
  5
113
330
10C
100
AcDbEntity
  8
DIMENSIONS
100
AcDbLine
 10
109.1015803475719
 20
133.176376005952
 30
0.0
 11
106.7535041362183
 21
135.1093887078439
 31
0.0
  0
LINE
  5
114
330
10C
100
AcDbEntity
  8
DIMENSIONS
100
AcDbLine
 10
109.3515803475718
 20
133.6093887078443
 30
0.0
 11
109.8711955898425
 21
133.3093887078444
 31
0.0
  0
LINE
  5
115
330
10C
100
AcDbEntity
  8
DIMENSIONS
100
AcDbLine
 10
103.1161974403404
 20
137.2093887078335
 30
0.0
 11
100.268121228987
 21
138.2763760059408
 31
0.0
  0
LINE
  5
116
330
10C
100
AcDbEntity
  8
DIMENSIONS
100
AcDbLine
 10
100.268121228987
 20
138.2763760059408
 30
0.0
 11
100.7681212289868
 21
139.1424014097253
 31
0.0
  0
LINE
  5
117
330
10C
100
AcDbEntity
  8
DIMENSIONS
100
AcDbLine
 10
100.7681212289868
 20
139.1424014097253
 30
0.0
 11
103.1161974403404
 21
137.2093887078335
 31
0.0
  0
LINE
  5
118
330
10C
100
AcDbEntity
  8
DIMENSIONS
100
AcDbLine
 10
100.5181212289869
 20
138.7093887078331
 30
0.0
 11
99.99850598671618
 21
139.009388707833
 31
0.0
  0
MTEXT
  5
119
330
10C
100
AcDbEntity
  8
DIMENSIONS
100
AcDbMText
 10
104.9348507882793
 20
136.1593887078387
 30
0.0
 40
2.275416666666667
 41
0.0
 46
0.0
 71
     5
 72
     1
  1
{\fArial|b0|i0|c0|p0;\C7;4,2}{\fArial|b0|i0|c0|p0;\C7;}
 73
     1
 44
1.0
  0
ENDBLK
  5
10E
330
10C
100
AcDbEntity
  8
0
100
AcDbBlockEnd
  0
BLOCK
  5
11C
330
11B
100
AcDbEntity
  8
0
100
AcDbBlockBegin
  2
BLOCK2
 70
     0
 10
0.0
 20
0.0
 30
0.0
  3
BLOCK2
  1

  0
LINE
  5
11E
330
11B
100
AcDbEntity
  8
DIMENSIONS
100
AcDbLine
 10
82.60383078432693
 20
126.5555411305357
 30
0.0
 11
82.60383078432693
 21
132.5555411305357
 31
0.0
  0
LINE
  5
11F
330
11B
100
AcDbEntity
  8
DIMENSIONS
100
AcDbLine
 10
91.00383326272592
 20
126.5555411306357
 30
0.0
 11
91.00383326272592
 21
132.5555411305357
 31
0.0
  0
LINE
  5
120
330
11B
100
AcDbEntity
  8
DIMENSIONS
100
AcDbLine
 10
82.60383078432693
 20
130.5555411305357
 30
0.0
 11
79.60383078432693
 21
130.0555411305357
 31
0.0
  0
LINE
  5
121
330
11B
100
AcDbEntity
  8
DIMENSIONS
100
AcDbLine
 10
79.60383078432693
 20
130.0555411305357
 30
0.0
 11
79.60383078432693
 21
131.0555411305357
 31
0.0
  0
LINE
  5
122
330
11B
100
AcDbEntity
  8
DIMENSIONS
100
AcDbLine
 10
79.60383078432693
 20
131.0555411305357
 30
0.0
 11
82.60383078432693
 21
130.5555411305357
 31
0.0
  0
LINE
  5
123
330
11B
100
AcDbEntity
  8
DIMENSIONS
100
AcDbLine
 10
79.60383078432693
 20
130.5555411305357
 30
0.0
 11
79.00383078432694
 21
130.5555411305357
 31
0.0
  0
LINE
  5
124
330
11B
100
AcDbEntity
  8
DIMENSIONS
100
AcDbLine
 10
91.00383326272592
 20
130.5555411305357
 30
0.0
 11
94.00383326272592
 21
131.0555411305357
 31
0.0
  0
LINE
  5
125
330
11B
100
AcDbEntity
  8
DIMENSIONS
100
AcDbLine
 10
94.00383326272592
 20
131.0555411305357
 30
0.0
 11
94.00383326272592
 21
130.0555411305357
 31
0.0
  0
LINE
  5
126
330
11B
100
AcDbEntity
  8
DIMENSIONS
100
AcDbLine
 10
94.00383326272592
 20
130.0555411305357
 30
0.0
 11
91.00383326272592
 21
130.5555411305357
 31
0.0
  0
LINE
  5
127
330
11B
100
AcDbEntity
  8
DIMENSIONS
100
AcDbLine
 10
94.00383326272592
 20
130.5555411305357
 30
0.0
 11
94.60383326272591
 21
130.5555411305357
 31
0.0
  0
MTEXT
  5
128
330
11B
100
AcDbEntity
  8
DIMENSIONS
100
AcDbMText
 10
86.80383202352643
 20
130.5555411305357
 30
0.0
 40
2.275416666666667
 41
0.0
 46
0.0
 71
     5
 72
     1
  1
{\fArial|b0|i0|c0|p0;\C7;8,4}{\fArial|b0|i0|c0|p0;\C7;}
 73
     1
 44
1.0
  0
ENDBLK
  5
11D
330
11B
100
AcDbEntity
  8
0
100
AcDbBlockEnd
  0
BLOCK
  5
12B
330
12A
100
AcDbEntity
  8
0
100
AcDbBlockBegin
  2
BLOCK3
 70
     0
 10
0.0
 20
0.0
 30
0.0
  3
BLOCK3
  1

  0
LINE
  5
12D
330
12A
100
AcDbEntity
  8
DIMENSIONS
100
AcDbLine
 10
104.156389272847
 20
115.5555411305657
 30
0.0
 11
104.156389272847
 21
119.5555411305357
 31
0.0
  0
LINE
  5
12E
330
12A
100
AcDbEntity
  8
DIMENSIONS
100
AcDbLine
 10
107.5563907210058
 20
115.5555411305257
 30
0.0
 11
107.5563907210058
 21
119.5555411305357
 31
0.0
  0
LINE
  5
12F
330
12A
100
AcDbEntity
  8
DIMENSIONS
100
AcDbLine
 10
104.156389272847
 20
117.5555411305357
 30
0.0
 11
101.156389272847
 21
117.0555411305357
 31
0.0
  0
LINE
  5
130
330
12A
100
AcDbEntity
  8
DIMENSIONS
100
AcDbLine
 10
101.156389272847
 20
117.0555411305357
 30
0.0
 11
101.156389272847
 21
118.0555411305357
 31
0.0
  0
LINE
  5
131
330
12A
100
AcDbEntity
  8
DIMENSIONS
100
AcDbLine
 10
101.156389272847
 20
118.0555411305357
 30
0.0
 11
104.156389272847
 21
117.5555411305357
 31
0.0
  0
LINE
  5
132
330
12A
100
AcDbEntity
  8
DIMENSIONS
100
AcDbLine
 10
101.156389272847
 20
117.5555411305357
 30
0.0
 11
100.556389272847
 21
117.5555411305357
 31
0.0
  0
LINE
  5
133
330
12A
100
AcDbEntity
  8
DIMENSIONS
100
AcDbLine
 10
107.5563907210058
 20
117.5555411305357
 30
0.0
 11
110.5563907210058
 21
118.0555411305357
 31
0.0
  0
LINE
  5
134
330
12A
100
AcDbEntity
  8
DIMENSIONS
100
AcDbLine
 10
110.5563907210058
 20
118.0555411305357
 30
0.0
 11
110.5563907210058
 21
117.0555411305357
 31
0.0
  0
LINE
  5
135
330
12A
100
AcDbEntity
  8
DIMENSIONS
100
AcDbLine
 10
110.5563907210058
 20
117.0555411305357
 30
0.0
 11
107.5563907210058
 21
117.5555411305357
 31
0.0
  0
LINE
  5
136
330
12A
100
AcDbEntity
  8
DIMENSIONS
100
AcDbLine
 10
110.5563907210058
 20
117.5555411305357
 30
0.0
 11
111.1563907210058
 21
117.5555411305357
 31
0.0
  0
MTEXT
  5
137
330
12A
100
AcDbEntity
  8
DIMENSIONS
100
AcDbMText
 10
105.8563899969264
 20
117.5555411305357
 30
0.0
 40
2.275416666666667
 41
0.0
 46
0.0
 71
     5
 72
     1
  1
{\fArial|b0|i0|c0|p0;\C7;3,4}{\fArial|b0|i0|c0|p0;\C7;}
 73
     1
 44
1.0
  0
ENDBLK
  5
12C
330
12A
100
AcDbEntity
  8
0
100
AcDbBlockEnd
  0
BLOCK
  5
13A
330
139
100
AcDbEntity
  8
0
100
AcDbBlockBegin
  2
BLOCK4
 70
     0
 10
0.0
 20
0.0
 30
0.0
  3
BLOCK4
  1

  0
LINE
  5
13C
330
139
100
AcDbEntity
  8
DIMENSIONS
100
AcDbLine
 10
99.24869466462643
 20
93.89528709273569
 30
0.0
 11
95.24869466462643
 21
93.89528709273569
 31
0.0
  0
LINE
  5
13D
330
139
100
AcDbEntity
  8
DIMENSIONS
100
AcDbLine
 10
99.24869466462644
 20
73.55554113053569
 30
0.0
 11
95.24869466462643
 21
73.55554113053569
 31
0.0
  0
LINE
  5
13E
330
139
100
AcDbEntity
  8
DIMENSIONS
100
AcDbLine
 10
97.24869466462643
 20
93.89528709273569
 30
0.0
 11
97.74869466462643
 21
90.89528709273569
 31
0.0
  0
LINE
  5
13F
330
139
100
AcDbEntity
  8
DIMENSIONS
100
AcDbLine
 10
97.74869466462643
 20
90.89528709273569
 30
0.0
 11
96.74869466462643
 21
90.89528709273569
 31
0.0
  0
LINE
  5
140
330
139
100
AcDbEntity
  8
DIMENSIONS
100
AcDbLine
 10
96.74869466462643
 20
90.89528709273569
 30
0.0
 11
97.24869466462643
 21
93.89528709273569
 31
0.0
  0
LINE
  5
141
330
139
100
AcDbEntity
  8
DIMENSIONS
100
AcDbLine
 10
97.24869466462643
 20
90.89528709273569
 30
0.0
 11
97.24869466462643
 21
87.31291303300151
 31
0.0
  0
LINE
  5
142
330
139
100
AcDbEntity
  8
DIMENSIONS
100
AcDbLine
 10
97.24869466462643
 20
73.55554113053569
 30
0.0
 11
96.74869466462643
 21
76.55554113053569
 31
0.0
  0
LINE
  5
143
330
139
100
AcDbEntity
  8
DIMENSIONS
100
AcDbLine
 10
96.74869466462643
 20
76.55554113053569
 30
0.0
 11
97.74869466462643
 21
76.55554113053569
 31
0.0
  0
LINE
  5
144
330
139
100
AcDbEntity
  8
DIMENSIONS
100
AcDbLine
 10
97.74869466462643
 20
76.55554113053569
 30
0.0
 11
97.24869466462643
 21
73.55554113053569
 31
0.0
  0
LINE
  5
145
330
139
100
AcDbEntity
  8
DIMENSIONS
100
AcDbLine
 10
97.24869466462643
 20
76.55554113053569
 30
0.0
 11
97.24869466462643
 21
80.13791379594096
 31
0.0
  0
MTEXT
  5
146
330
139
100
AcDbEntity
  8
DIMENSIONS
100
AcDbMText
 10
97.24869466462643
 20
83.72541411163569
 30
0.0
 40
2.275416666666667
 41
0.0
 46
0.0
 71
     5
 72
     1
  1
{\fArial|b0|i0|c0|p0;\C7;20,34}{\fArial|b0|i0|c0|p0;\C7;}
 73
     1
 44
1.0
  0
ENDBLK
  5
13B
330
139
100
AcDbEntity
  8
0
100
AcDbBlockEnd
  0
BLOCK
  5
149
330
148
100
AcDbEntity
  8
0
100
AcDbBlockBegin
  2
BLOCK5
 70
     0
 10
0.0
 20
0.0
 30
0.0
  3
BLOCK5
  1

  0
LINE
  5
14B
330
148
100
AcDbEntity
  8
DIMENSIONS
100
AcDbLine
 10
80.27755149435777
 20
135.2516935532361
 30
0.0
 11
77.55735171354307
 21
136.8222016289398
 31
0.0
  0
LINE
  5
14C
330
148
100
AcDbEntity
  8
DIMENSIONS
100
AcDbLine
 10
74.27755149436123
 20
124.8593887078341
 30
0.0
 11
71.55735171354652
 21
126.4298967835378
 31
0.0
  0
LINE
  5
14D
330
148
100
AcDbEntity
  8
DIMENSIONS
100
AcDbLine
 10
79.28940252111171
 20
135.8222016289394
 30
0.0
 11
78.2224152230033
 21
132.9741254175863
 31
0.0
  0
LINE
  5
14E
330
148
100
AcDbEntity
  8
DIMENSIONS
100
AcDbLine
 10
78.2224152230033
 20
132.9741254175863
 30
0.0
 11
77.35638981921898
 21
133.4741254175865
 31
0.0
  0
LINE
  5
14F
330
148
100
AcDbEntity
  8
DIMENSIONS
100
AcDbLine
 10
77.35638981921898
 20
133.4741254175865
 30
0.0
 11
79.28940252111171
 21
135.8222016289394
 31
0.0
  0
LINE
  5
150
330
148
100
AcDbEntity
  8
DIMENSIONS
100
AcDbLine
 10
77.78940252111116
 20
133.2241254175864
 30
0.0
 11
77.79940252111116
 21
133.2341254175864
 31
0.0
  0
LINE
  5
151
330
148
100
AcDbEntity
  8
DIMENSIONS
100
AcDbLine
 10
73.28940252111522
 20
125.4298967835374
 30
0.0
 11
74.35638981922361
 21
128.2779729948905
 31
0.0
  0
LINE
  5
152
330
148
100
AcDbEntity
  8
DIMENSIONS
100
AcDbLine
 10
74.35638981922361
 20
128.2779729948905
 30
0.0
 11
75.22241522300794
 21
127.7779729948903
 31
0.0
  0
LINE
  5
153
330
148
100
AcDbEntity
  8
DIMENSIONS
100
AcDbLine
 10
75.22241522300794
 20
127.7779729948903
 30
0.0
 11
73.28940252111522
 21
125.4298967835374
 31
0.0
  0
LINE
  5
154
330
148
100
AcDbEntity
  8
DIMENSIONS
100
AcDbLine
 10
74.78940252111576
 20
128.0279729948904
 30
0.0
 11
74.79940252111577
 21
128.0379729948904
 31
0.0
  0
MTEXT
  5
155
330
148
100
AcDbEntity
  8
DIMENSIONS
100
AcDbMText
 10
76.28940252111346
 20
130.6260492062384
 30
0.0
 40
2.275416666666667
 41
0.0
 46
0.0
 71
     5
 72
     1
  1
{\fArial|b0|i0|c0|p0;\C7;12}{\fArial|b0|i0|c0|p0;\C7;}
 73
     1
 44
1.0
  0
ENDBLK
  5
14A
330
148
100
AcDbEntity
  8
0
100
AcDbBlockEnd
  0
BLOCK
  5
158
330
157
100
AcDbEntity
  8
0
100
AcDbBlockBegin
  2
BLOCK6
 70
     0
 10
0.0
 20
0.0
 30
0.0
  3
BLOCK6
  1

  0
LINE
  5
15A
330
157
100
AcDbEntity
  8
DIMENSIONS
100
AcDbLine
 10
93.78619284572045
 20
139.4777738399136
 30
0.0
 11
92.99419629521373
 21
142.4335452058183
 31
0.0
  0
LINE
  5
15B
330
157
100
AcDbEntity
  8
DIMENSIONS
100
AcDbLine
 10
81.49196421170802
 20
136.18354520586
 30
0.0
 11
80.6999676612013
 21
139.1393165717647
 31
0.0
  0
LINE
  5
15C
330
157
100
AcDbEntity
  8
DIMENSIONS
100
AcDbLine
 10
93.5118343854197
 20
140.5016935532404
 30
0.0
 11
90.74346642910437
 21
139.242273504787
 31
0.0
  0
LINE
  5
15D
330
157
100
AcDbEntity
  8
DIMENSIONS
100
AcDbLine
 10
90.74346642910437
 20
139.242273504787
 30
0.0
 11
90.48464738400139
 21
140.2081993310759
 31
0.0
  0
LINE
  5
15E
330
157
100
AcDbEntity
  8
DIMENSIONS
100
AcDbLine
 10
90.48464738400139
 20
140.2081993310759
 30
0.0
 11
93.5118343854197
 21
140.5016935532404
 31
0.0
  0
LINE
  5
15F
330
157
100
AcDbEntity
  8
DIMENSIONS
100
AcDbLine
 10
90.61405690655288
 20
139.7252364179315
 30
0.0
 11
90.62405690655288
 21
139.7352364179315
 31
0.0
  0
LINE
  5
160
330
157
100
AcDbEntity
  8
DIMENSIONS
100
AcDbLine
 10
81.21760575140728
 20
137.2074649191868
 30
0.0
 11
83.98597370772261
 21
138.4668849676403
 31
0.0
  0
LINE
  5
161
330
157
100
AcDbEntity
  8
DIMENSIONS
100
AcDbLine
 10
83.98597370772261
 20
138.4668849676403
 30
0.0
 11
84.24479275282559
 21
137.5009591413513
 31
0.0
  0
LINE
  5
162
330
157
100
AcDbEntity
  8
DIMENSIONS
100
AcDbLine
 10
84.24479275282559
 20
137.5009591413513
 30
0.0
 11
81.21760575140728
 21
137.2074649191868
 31
0.0
  0
LINE
  5
163
330
157
100
AcDbEntity
  8
DIMENSIONS
100
AcDbLine
 10
84.11538323027409
 20
137.9839220544958
 30
0.0
 11
84.1253832302741
 21
137.9939220544958
 31
0.0
  0
MTEXT
  5
164
330
157
100
AcDbEntity
  8
DIMENSIONS
100
AcDbMText
 10
87.36472006841348
 20
138.8545792362136
 30
0.0
 40
2.275416666666667
 41
0.0
 46
0.0
 71
     5
 72
     1
  1
{\fArial|b0|i0|c0|p0;\C7;12,73}{\fArial|b0|i0|c0|p0;\C7;}
 73
     1
 44
1.0
  0
ENDBLK
  5
159
330
157
100
AcDbEntity
  8
0
100
AcDbBlockEnd
  0
BLOCK
  5
167
330
166
100
AcDbEntity
  8
0
100
AcDbBlockBegin
  2
BLOCK7
 70
     0
 10
0.0
 20
0.0
 30
0.0
  3
BLOCK7
  1

  0
LINE
  5
169
330
166
100
AcDbEntity
  8
DIMENSIONS
100
AcDbLine
 10
132.9807454721951
 20
97.21579516833606
 30
0.0
 11
136.4220884233074
 21
99.20265544753558
 31
0.0
  0
LINE
  5
16A
330
166
100
AcDbEntity
  8
DIMENSIONS
100
AcDbLine
 10
115.6602373964994
 20
127.2157951683328
 30
0.0
 11
119.1015803476117
 21
129.2026554475323
 31
0.0
  0
LINE
  5
16B
330
166
100
AcDbEntity
  8
DIMENSIONS
100
AcDbLine
 10
134.6900376157387
 20
98.2026554475352
 30
0.0
 11
132.757024913846
 21
100.5507316588881
 31
0.0
  0
LINE
  5
16C
330
166
100
AcDbEntity
  8
DIMENSIONS
100
AcDbLine
 10
132.757024913846
 20
100.5507316588881
 30
0.0
 11
133.6230503176303
 21
101.0507316588883
 31
0.0
  0
LINE
  5
16D
330
166
100
AcDbEntity
  8
DIMENSIONS
100
AcDbLine
 10
133.6230503176303
 20
101.0507316588883
 30
0.0
 11
134.6900376157387
 21
98.2026554475352
 31
0.0
  0
LINE
  5
16E
330
166
100
AcDbEntity
  8
DIMENSIONS
100
AcDbLine
 10
133.1900376157382
 20
100.8007316588882
 30
0.0
 11
127.1652382524174
 21
111.235990217713
 31
0.0
  0
LINE
  5
16F
330
166
100
AcDbEntity
  8
DIMENSIONS
100
AcDbLine
 10
117.3695295400431
 20
128.2026554475319
 30
0.0
 11
119.3025422419358
 21
125.854579236179
 31
0.0
  0
LINE
  5
170
330
166
100
AcDbEntity
  8
DIMENSIONS
100
AcDbLine
 10
119.3025422419358
 20
125.854579236179
 30
0.0
 11
118.4365168381515
 21
125.3545792361789
 31
0.0
  0
LINE
  5
171
330
166
100
AcDbEntity
  8
DIMENSIONS
100
AcDbLine
 10
118.4365168381515
 20
125.3545792361789
 30
0.0
 11
117.3695295400431
 21
128.2026554475319
 31
0.0
  0
LINE
  5
172
330
166
100
AcDbEntity
  8
DIMENSIONS
100
AcDbLine
 10
118.8695295400436
 20
125.6045792361789
 30
0.0
 11
123.332151389021
 21
117.8750915665212
 31
0.0
  0
MTEXT
  5
173
330
166
100
AcDbEntity
  8
DIMENSIONS
100
AcDbMText
 10
125.2486946646264
 20
114.5555411305357
 30
0.0
 40
2.275416666666667
 41
0.0
 46
0.0
 71
     5
 72
     1
  1
{\fArial|b0|i0|c0|p0;\C7;34,64}{\fArial|b0|i0|c0|p0;\C7;}
 73
     1
 44
1.0
  0
ENDBLK
  5
168
330
166
100
AcDbEntity
  8
0
100
AcDbBlockEnd
  0
BLOCK
  5
176
330
175
100
AcDbEntity
  8
0
100
AcDbBlockBegin
  2
BLOCK8
 70
     0
 10
0.0
 20
0.0
 30
0.0
  3
BLOCK8
  1

  0
LINE
  5
178
330
175
100
AcDbEntity
  8
DIMENSIONS
100
AcDbLine
 10
102.0588290854631
 20
135.377972994877
 30
0.0
 11
106.9152355459931
 21
143.7895157267585
 31
0.0
  0
LINE
  5
179
330
175
100
AcDbEntity
  8
DIMENSIONS
100
AcDbLine
 10
109.3334424772633
 20
131.1779729948897
 30
0.0
 11
114.1898489377932
 21
139.5895157267712
 31
0.0
  0
LINE
  5
17A
330
175
100
AcDbEntity
  8
DIMENSIONS
100
AcDbLine
 10
105.9152355459964
 20
142.0574649191877
 30
0.0
 11
108.7633117573518
 21
140.9904776210854
 31
0.0
  0
LINE
  5
17B
330
175
100
AcDbEntity
  8
DIMENSIONS
100
AcDbLine
 10
108.7633117573518
 20
140.9904776210854
 30
0.0
 11
108.2633117573535
 21
140.1244522173
 31
0.0
  0
LINE
  5
17C
330
175
100
AcDbEntity
  8
DIMENSIONS
100
AcDbLine
 10
108.2633117573535
 20
140.1244522173
 30
0.0
 11
105.9152355459964
 21
142.0574649191877
 31
0.0
  0
LINE
  5
17D
330
175
100
AcDbEntity
  8
DIMENSIONS
100
AcDbLine
 10
108.5133117573527
 20
140.5574649191927
 30
0.0
 11
108.5233117573527
 21
140.5674649191927
 31
0.0
  0
LINE
  5
17E
330
175
100
AcDbEntity
  8
DIMENSIONS
100
AcDbLine
 10
113.1898489377966
 20
137.8574649192003
 30
0.0
 11
110.3417727264412
 21
138.9244522173025
 31
0.0
  0
LINE
  5
17F
330
175
100
AcDbEntity
  8
DIMENSIONS
100
AcDbLine
 10
110.3417727264412
 20
138.9244522173025
 30
0.0
 11
110.8417727264395
 21
139.790477621088
 31
0.0
  0
LINE
  5
180
330
175
100
AcDbEntity
  8
DIMENSIONS
100
AcDbLine
 10
110.8417727264395
 20
139.790477621088
 30
0.0
 11
113.1898489377966
 21
137.8574649192003
 31
0.0
  0
LINE
  5
181
330
175
100
AcDbEntity
  8
DIMENSIONS
100
AcDbLine
 10
110.5917727264404
 20
139.3574649191953
 30
0.0
 11
110.6017727264404
 21
139.3674649191953
 31
0.0
  0
MTEXT
  5
182
330
175
100
AcDbEntity
  8
DIMENSIONS
100
AcDbMText
 10
109.5525422418965
 20
139.957464919194
 30
0.0
 40
2.275416666666667
 41
0.0
 46
0.0
 71
     5
 72
     1
  1
{\fArial|b0|i0|c0|p0;\C7;8,4}{\fArial|b0|i0|c0|p0;\C7;}
 73
     1
 44
1.0
  0
ENDBLK
  5
177
330
175
100
AcDbEntity
  8
0
100
AcDbBlockEnd
  0
BLOCK
  5
185
330
184
100
AcDbEntity
  8
0
100
AcDbBlockBegin
  2
BLOCK9
 70
     0
 10
0.0
 20
0.0
 30
0.0
  3
BLOCK9
  1

  0
LINE
  5
187
330
184
100
AcDbEntity
  8
DIMENSIONS
100
AcDbLine
 10
88.69613578131867
 20
103.8331092662013
 30
0.0
 11
86.8301103775174
 21
100.6010584586367
 31
0.0
  0
LINE
  5
188
330
184
100
AcDbEntity
  8
DIMENSIONS
100
AcDbLine
 10
78.30383093598303
 20
109.8331092662185
 30
0.0
 11
76.43780553218174
 21
106.6010584586539
 31
0.0
  0
LINE
  5
189
330
184
100
AcDbEntity
  8
DIMENSIONS
100
AcDbLine
 10
87.83011037752514
 20
102.3331092662011
 30
0.0
 11
84.98203416617662
 21
103.4000965643216
 31
0.0
  0
LINE
  5
18A
330
184
100
AcDbEntity
  8
DIMENSIONS
100
AcDbLine
 10
84.98203416617662
 20
103.4000965643216
 30
0.0
 11
85.4820341661805
 21
104.2661219681038
 31
0.0
  0
LINE
  5
18B
330
184
100
AcDbEntity
  8
DIMENSIONS
100
AcDbLine
 10
85.4820341661805
 20
104.2661219681038
 30
0.0
 11
87.83011037752514
 21
102.3331092662011
 31
0.0
  0
LINE
  5
18C
330
184
100
AcDbEntity
  8
DIMENSIONS
100
AcDbLine
 10
85.23203416617855
 20
103.8331092662127
 30
0.0
 11
85.24203416617856
 21
103.8431092662127
 31
0.0
  0
LINE
  5
18D
330
184
100
AcDbEntity
  8
DIMENSIONS
100
AcDbLine
 10
77.43780553218949
 20
108.3331092662183
 30
0.0
 11
80.28588174353804
 21
107.2661219680978
 31
0.0
  0
LINE
  5
18E
330
184
100
AcDbEntity
  8
DIMENSIONS
100
AcDbLine
 10
80.28588174353804
 20
107.2661219680978
 30
0.0
 11
79.78588174353416
 21
106.4000965643156
 31
0.0
  0
LINE
  5
18F
330
184
100
AcDbEntity
  8
DIMENSIONS
100
AcDbLine
 10
79.78588174353416
 20
106.4000965643156
 30
0.0
 11
77.43780553218949
 21
108.3331092662183
 31
0.0
  0
LINE
  5
190
330
184
100
AcDbEntity
  8
DIMENSIONS
100
AcDbLine
 10
80.0358817435361
 20
106.8331092662067
 30
0.0
 11
80.0458817435361
 21
106.8431092662067
 31
0.0
  0
MTEXT
  5
191
330
184
100
AcDbEntity
  8
DIMENSIONS
100
AcDbMText
 10
82.63395795485732
 20
105.3331092662097
 30
0.0
 40
2.275416666666667
 41
0.0
 46
0.0
 71
     5
 72
     1
  1
{\fArial|b0|i0|c0|p0;\C7;12}{\fArial|b0|i0|c0|p0;\C7;}
 73
     1
 44
1.0
  0
ENDBLK
  5
186
330
184
100
AcDbEntity
  8
0
100
AcDbBlockEnd
  0
BLOCK
  5
194
330
193
100
AcDbEntity
  8
0
100
AcDbBlockBegin
  2
BLOCK10
 70
     0
 10
0.0
 20
0.0
 30
0.0
  3
BLOCK10
  1

  0
LINE
  5
196
330
193
100
AcDbEntity
  8
DIMENSIONS
100
AcDbLine
 10
101.2486946646264
 20
91.89528709273569
 30
0.0
 11
101.2486946646264
 21
89.55554113053569
 31
0.0
  0
LINE
  5
197
330
193
100
AcDbEntity
  8
DIMENSIONS
100
AcDbLine
 10
131.2486946646264
 20
94.21579516833569
 30
0.0
 11
131.2486946646264
 21
89.55554113053569
 31
0.0
  0
LINE
  5
198
330
193
100
AcDbEntity
  8
DIMENSIONS
100
AcDbLine
 10
101.2486946646264
 20
91.55554113053569
 30
0.0
 11
104.2486946646264
 21
92.05554113053569
 31
0.0
  0
LINE
  5
199
330
193
100
AcDbEntity
  8
DIMENSIONS
100
AcDbLine
 10
104.2486946646264
 20
92.05554113053569
 30
0.0
 11
104.2486946646264
 21
91.05554113053569
 31
0.0
  0
LINE
  5
19A
330
193
100
AcDbEntity
  8
DIMENSIONS
100
AcDbLine
 10
104.2486946646264
 20
91.05554113053569
 30
0.0
 11
101.2486946646264
 21
91.55554113053569
 31
0.0
  0
LINE
  5
19B
330
193
100
AcDbEntity
  8
DIMENSIONS
100
AcDbLine
 10
104.2486946646264
 20
91.55554113053569
 30
0.0
 11
112.6611946884683
 21
91.55554113053569
 31
0.0
  0
LINE
  5
19C
330
193
100
AcDbEntity
  8
DIMENSIONS
100
AcDbLine
 10
131.2486946646264
 20
91.55554113053569
 30
0.0
 11
128.2486946646264
 21
91.05554113053569
 31
0.0
  0
LINE
  5
19D
330
193
100
AcDbEntity
  8
DIMENSIONS
100
AcDbLine
 10
128.2486946646264
 20
91.05554113053569
 30
0.0
 11
128.2486946646264
 21
92.05554113053569
 31
0.0
  0
LINE
  5
19E
330
193
100
AcDbEntity
  8
DIMENSIONS
100
AcDbLine
 10
128.2486946646264
 20
92.05554113053569
 30
0.0
 11
131.2486946646264
 21
91.55554113053569
 31
0.0
  0
LINE
  5
19F
330
193
100
AcDbEntity
  8
DIMENSIONS
100
AcDbLine
 10
128.2486946646264
 20
91.55554113053569
 30
0.0
 11
119.8361946407846
 21
91.55554113053569
 31
0.0
  0
MTEXT
  5
1A0
330
193
100
AcDbEntity
  8
DIMENSIONS
100
AcDbMText
 10
116.2486946646264
 20
91.55554113053569
 30
0.0
 40
2.275416666666667
 41
0.0
 46
0.0
 71
     5
 72
     1
  1
{\fArial|b0|i0|c0|p0;\C7;30}{\fArial|b0|i0|c0|p0;\C7;}
 73
     1
 44
1.0
  0
ENDBLK
  5
195
330
193
100
AcDbEntity
  8
0
100
AcDbBlockEnd
  0
BLOCK
  5
1A3
330
1A2
100
AcDbEntity
  8
0
100
AcDbBlockBegin
  2
BLOCK11
 70
     0
 10
0.0
 20
0.0
 30
0.0
  3
BLOCK11
  1

  0
LINE
  5
1A5
330
1A2
100
AcDbEntity
  8
DIMENSIONS
100
AcDbLine
 10
118.2486937555506
 20
73.55553146523569
 30
0.0
 11
137.2486946646264
 21
73.55553146523569
 31
0.0
  0
LINE
  5
1A6
330
1A2
100
AcDbEntity
  8
DIMENSIONS
100
AcDbLine
 10
124.2486946646264
 20
64.5555411305357
 30
0.0
 11
137.2486946646264
 21
64.5555411305357
 31
0.0
  0
LINE
  5
1A7
330
1A2
100
AcDbEntity
  8
DIMENSIONS
100
AcDbLine
 10
135.2486946646264
 20
73.55553146523569
 30
0.0
 11
135.7486946646264
 21
70.55553146523569
 31
0.0
  0
LINE
  5
1A8
330
1A2
100
AcDbEntity
  8
DIMENSIONS
100
AcDbLine
 10
135.7486946646264
 20
70.55553146523569
 30
0.0
 11
134.7486946646264
 21
70.55553146523569
 31
0.0
  0
LINE
  5
1A9
330
1A2
100
AcDbEntity
  8
DIMENSIONS
100
AcDbLine
 10
134.7486946646264
 20
70.55553146523569
 30
0.0
 11
135.2486946646264
 21
73.55553146523569
 31
0.0
  0
LINE
  5
1AA
330
1A2
100
AcDbEntity
  8
DIMENSIONS
100
AcDbLine
 10
135.2486946646264
 20
70.55553146523569
 30
0.0
 11
135.2586946646264
 21
70.5655314652357
 31
0.0
  0
LINE
  5
1AB
330
1A2
100
AcDbEntity
  8
DIMENSIONS
100
AcDbLine
 10
135.2486946646264
 20
64.5555411305357
 30
0.0
 11
134.7486946646264
 21
67.5555411305357
 31
0.0
  0
LINE
  5
1AC
330
1A2
100
AcDbEntity
  8
DIMENSIONS
100
AcDbLine
 10
134.7486946646264
 20
67.5555411305357
 30
0.0
 11
135.7486946646264
 21
67.5555411305357
 31
0.0
  0
LINE
  5
1AD
330
1A2
100
AcDbEntity
  8
DIMENSIONS
100
AcDbLine
 10
135.7486946646264
 20
67.5555411305357
 30
0.0
 11
135.2486946646264
 21
64.5555411305357
 31
0.0
  0
LINE
  5
1AE
330
1A2
100
AcDbEntity
  8
DIMENSIONS
100
AcDbLine
 10
135.2486946646264
 20
67.5555411305357
 30
0.0
 11
135.2586946646264
 21
67.5655411305357
 31
0.0
  0
MTEXT
  5
1AF
330
1A2
100
AcDbEntity
  8
DIMENSIONS
100
AcDbMText
 10
135.2486946646264
 20
69.0555362978857
 30
0.0
 40
2.275416666666667
 41
0.0
 46
0.0
 71
     5
 72
     1
  1
{\fArial|b0|i0|c0|p0;\C7;9}{\fArial|b0|i0|c0|p0;\C7;}
 73
     1
 44
1.0
  0
ENDBLK
  5
1A4
330
1A2
100
AcDbEntity
  8
0
100
AcDbBlockEnd
  0
BLOCK
  5
1B2
330
1B1
100
AcDbEntity
  8
0
100
AcDbBlockBegin
  2
BLOCK12
 70
     0
 10
0.0
 20
0.0
 30
0.0
  3
BLOCK12
  1

  0
LINE
  5
1B4
330
1B1
100
AcDbEntity
  8
DIMENSIONS
100
AcDbLine
 10
133.2486946646264
 20
73.55554113053569
 30
0.0
 11
137.2486946646264
 21
73.55554113053569
 31
0.0
  0
LINE
  5
1B5
330
1B1
100
AcDbEntity
  8
DIMENSIONS
100
AcDbLine
 10
133.2486946646264
 20
96.21579516833569
 30
0.0
 11
137.2486946646264
 21
96.21579516833569
 31
0.0
  0
LINE
  5
1B6
330
1B1
100
AcDbEntity
  8
DIMENSIONS
100
AcDbLine
 10
135.2486946646264
 20
73.55554113053569
 30
0.0
 11
134.7486946646264
 21
76.55554113053569
 31
0.0
  0
LINE
  5
1B7
330
1B1
100
AcDbEntity
  8
DIMENSIONS
100
AcDbLine
 10
134.7486946646264
 20
76.55554113053569
 30
0.0
 11
135.7486946646264
 21
76.55554113053569
 31
0.0
  0
LINE
  5
1B8
330
1B1
100
AcDbEntity
  8
DIMENSIONS
100
AcDbLine
 10
135.7486946646264
 20
76.55554113053569
 30
0.0
 11
135.2486946646264
 21
73.55554113053569
 31
0.0
  0
LINE
  5
1B9
330
1B1
100
AcDbEntity
  8
DIMENSIONS
100
AcDbLine
 10
135.2486946646264
 20
76.55554113053569
 30
0.0
 11
135.2486946646264
 21
81.29816732072123
 31
0.0
  0
LINE
  5
1BA
330
1B1
100
AcDbEntity
  8
DIMENSIONS
100
AcDbLine
 10
135.2486946646264
 20
96.21579516833569
 30
0.0
 11
135.7486946646264
 21
93.21579516833569
 31
0.0
  0
LINE
  5
1BB
330
1B1
100
AcDbEntity
  8
DIMENSIONS
100
AcDbLine
 10
135.7486946646264
 20
93.21579516833569
 30
0.0
 11
134.7486946646264
 21
93.21579516833569
 31
0.0
  0
LINE
  5
1BC
330
1B1
100
AcDbEntity
  8
DIMENSIONS
100
AcDbLine
 10
134.7486946646264
 20
93.21579516833569
 30
0.0
 11
135.2486946646264
 21
96.21579516833569
 31
0.0
  0
LINE
  5
1BD
330
1B1
100
AcDbEntity
  8
DIMENSIONS
100
AcDbLine
 10
135.2486946646264
 20
93.21579516833569
 30
0.0
 11
135.2486946646264
 21
88.47316655778178
 31
0.0
  0
MTEXT
  5
1BE
330
1B1
100
AcDbEntity
  8
DIMENSIONS
100
AcDbMText
 10
135.2486946646264
 20
84.88566814943569
 30
0.0
 40
2.275416666666667
 41
0.0
 46
0.0
 71
     5
 72
     1
  1
{\fArial|b0|i0|c0|p0;\C7;22,66}{\fArial|b0|i0|c0|p0;\C7;}
 73
     1
 44
1.0
  0
ENDBLK
  5
1B3
330
1B1
100
AcDbEntity
  8
0
100
AcDbBlockEnd
  0
BLOCK
  5
1C1
330
1C0
100
AcDbEntity
  8
0
100
AcDbBlockBegin
  2
BLOCK13
 70
     0
 10
0.0
 20
0.0
 30
0.0
  3
BLOCK13
  1

  0
LINE
  5
1C3
330
1C0
100
AcDbEntity
  8
DIMENSIONS
100
AcDbLine
 10
85.07178108700137
 20
123.5555434186944
 30
0.0
 11
63.49998390881616
 21
111.1010642200543
 31
0.0
  0
LINE
  5
1C4
330
1C0
100
AcDbEntity
  8
DIMENSIONS
100
AcDbLine
 10
114.5166428190255
 20
72.55553168859439
 30
0.0
 11
92.94484564084031
 21
60.10105248995427
 31
0.0
  0
LINE
  5
1C5
330
1C0
100
AcDbEntity
  8
DIMENSIONS
100
AcDbLine
 10
65.23203484534123
 20
112.1010639966956
 30
0.0
 11
67.16504724443445
 21
109.7529875360683
 31
0.0
  0
LINE
  5
1C6
330
1C0
100
AcDbEntity
  8
DIMENSIONS
100
AcDbLine
 10
67.16504724443445
 20
109.7529875360683
 30
0.0
 11
66.29902177617191
 21
109.2529876477477
 31
0.0
  0
LINE
  5
1C7
330
1C0
100
AcDbEntity
  8
DIMENSIONS
100
AcDbLine
 10
66.29902177617191
 20
109.2529876477477
 30
0.0
 11
65.23203484534123
 21
112.1010639966956
 31
0.0
  0
LINE
  5
1C8
330
1C0
100
AcDbEntity
  8
DIMENSIONS
100
AcDbLine
 10
66.73203451030318
 20
109.502987591908
 30
0.0
 11
76.3321520519365
 21
92.87509170779065
 31
0.0
  0
LINE
  5
1C9
330
1C0
100
AcDbEntity
  8
DIMENSIONS
100
AcDbLine
 10
94.67689657736537
 20
61.10105226659557
 30
0.0
 11
92.74388417827215
 21
63.44912872722286
 31
0.0
  0
LINE
  5
1CA
330
1C0
100
AcDbEntity
  8
DIMENSIONS
100
AcDbLine
 10
92.74388417827215
 20
63.44912872722286
 30
0.0
 11
93.60990964653469
 21
63.9491286155435
 31
0.0
  0
LINE
  5
1CB
330
1C0
100
AcDbEntity
  8
DIMENSIONS
100
AcDbLine
 10
93.60990964653469
 20
63.9491286155435
 30
0.0
 11
94.67689657736537
 21
61.10105226659557
 31
0.0
  0
LINE
  5
1CC
330
1C0
100
AcDbEntity
  8
DIMENSIONS
100
AcDbLine
 10
93.17689691240344
 20
63.69912867138316
 30
0.0
 11
80.16523755261832
 21
86.23599055328073
 31
0.0
  0
MTEXT
  5
1CD
330
1C0
100
AcDbEntity
  8
DIMENSIONS
100
AcDbMText
 10
78.24869466462643
 20
89.55554113053569
 30
0.0
 40
2.275416666666667
 41
0.0
 46
0.0
 71
     5
 72
     1
  1
{\fArial|b0|i0|c0|p0;\C7;58,89}{\fArial|b0|i0|c0|p0;\C7;}
 73
     1
 44
1.0
  0
ENDBLK
  5
1C2
330
1C0
100
AcDbEntity
  8
0
100
AcDbBlockEnd
  0
BLOCK
  5
1D0
330
1CF
100
AcDbEntity
  8
0
100
AcDbBlockBegin
  2
BLOCK14
 70
     0
 10
0.0
 20
0.0
 30
0.0
  3
BLOCK14
  1

  0
LINE
  5
1D2
330
1CF
100
AcDbEntity
  8
DIMENSIONS
100
AcDbLine
 10
122.2486946646264
 20
163.9731369018554
 30
0.0
 11
122.2486946646264
 21
152.9731369018554
 31
0.0
  0
LINE
  5
1D3
330
1CF
100
AcDbEntity
  8
DIMENSIONS
100
AcDbLine
 10
110.2486946646264
 20
163.9731369018554
 30
0.0
 11
110.2486946646264
 21
152.9731369018554
 31
0.0
  0
LINE
  5
1D4
330
1CF
100
AcDbEntity
  8
DIMENSIONS
100
AcDbLine
 10
122.2486946646264
 20
154.9731369018554
 30
0.0
 11
119.2486946646264
 21
154.4731369018554
 31
0.0
  0
LINE
  5
1D5
330
1CF
100
AcDbEntity
  8
DIMENSIONS
100
AcDbLine
 10
119.2486946646264
 20
154.4731369018554
 30
0.0
 11
119.2486946646264
 21
155.4731369018554
 31
0.0
  0
LINE
  5
1D6
330
1CF
100
AcDbEntity
  8
DIMENSIONS
100
AcDbLine
 10
119.2486946646264
 20
155.4731369018554
 30
0.0
 11
122.2486946646264
 21
154.9731369018554
 31
0.0
  0
LINE
  5
1D7
330
1CF
100
AcDbEntity
  8
DIMENSIONS
100
AcDbLine
 10
119.2486946646264
 20
154.9731369018554
 30
0.0
 11
119.2586946646264
 21
154.9831369018554
 31
0.0
  0
LINE
  5
1D8
330
1CF
100
AcDbEntity
  8
DIMENSIONS
100
AcDbLine
 10
110.2486946646264
 20
154.9731369018554
 30
0.0
 11
113.2486946646264
 21
155.4731369018554
 31
0.0
  0
LINE
  5
1D9
330
1CF
100
AcDbEntity
  8
DIMENSIONS
100
AcDbLine
 10
113.2486946646264
 20
155.4731369018554
 30
0.0
 11
113.2486946646264
 21
154.4731369018554
 31
0.0
  0
LINE
  5
1DA
330
1CF
100
AcDbEntity
  8
DIMENSIONS
100
AcDbLine
 10
113.2486946646264
 20
154.4731369018554
 30
0.0
 11
110.2486946646264
 21
154.9731369018554
 31
0.0
  0
LINE
  5
1DB
330
1CF
100
AcDbEntity
  8
DIMENSIONS
100
AcDbLine
 10
113.2486946646264
 20
154.9731369018554
 30
0.0
 11
113.2586946646264
 21
154.9831369018554
 31
0.0
  0
MTEXT
  5
1DC
330
1CF
100
AcDbEntity
  8
DIMENSIONS
100
AcDbMText
 10
116.2486946646264
 20
154.9731369018554
 30
0.0
 40
2.275416666666667
 41
0.0
 46
0.0
 71
     5
 72
     1
  1
{\fArial|b0|i0|c0|p0;\C7;12}{\fArial|b0|i0|c0|p0;\C7;}
 73
     1
 44
1.0
  0
ENDBLK
  5
1D1
330
1CF
100
AcDbEntity
  8
0
100
AcDbBlockEnd
  0
BLOCK
  5
1DF
330
1DE
100
AcDbEntity
  8
0
100
AcDbBlockBegin
  2
BLOCK15
 70
     0
 10
0.0
 20
0.0
 30
0.0
  3
BLOCK15
  1

  0
LINE
  5
1E1
330
1DE
100
AcDbEntity
  8
DIMENSIONS
100
AcDbLine
 10
131.2486946646264
 20
163.9731369018554
 30
0.0
 11
131.2486946646264
 21
152.9731369018554
 31
0.0
  0
LINE
  5
1E2
330
1DE
100
AcDbEntity
  8
DIMENSIONS
100
AcDbLine
 10
122.2486946646264
 20
163.9731369018554
 30
0.0
 11
122.2486946646264
 21
152.9731369018554
 31
0.0
  0
LINE
  5
1E3
330
1DE
100
AcDbEntity
  8
DIMENSIONS
100
AcDbLine
 10
131.2486946646264
 20
154.9731369018554
 30
0.0
 11
128.2486946646264
 21
154.4731369018554
 31
0.0
  0
LINE
  5
1E4
330
1DE
100
AcDbEntity
  8
DIMENSIONS
100
AcDbLine
 10
128.2486946646264
 20
154.4731369018554
 30
0.0
 11
128.2486946646264
 21
155.4731369018554
 31
0.0
  0
LINE
  5
1E5
330
1DE
100
AcDbEntity
  8
DIMENSIONS
100
AcDbLine
 10
128.2486946646264
 20
155.4731369018554
 30
0.0
 11
131.2486946646264
 21
154.9731369018554
 31
0.0
  0
LINE
  5
1E6
330
1DE
100
AcDbEntity
  8
DIMENSIONS
100
AcDbLine
 10
128.2486946646264
 20
154.9731369018554
 30
0.0
 11
128.2586946646264
 21
154.9831369018554
 31
0.0
  0
LINE
  5
1E7
330
1DE
100
AcDbEntity
  8
DIMENSIONS
100
AcDbLine
 10
122.2486946646264
 20
154.9731369018554
 30
0.0
 11
125.2486946646264
 21
155.4731369018554
 31
0.0
  0
LINE
  5
1E8
330
1DE
100
AcDbEntity
  8
DIMENSIONS
100
AcDbLine
 10
125.2486946646264
 20
155.4731369018554
 30
0.0
 11
125.2486946646264
 21
154.4731369018554
 31
0.0
  0
LINE
  5
1E9
330
1DE
100
AcDbEntity
  8
DIMENSIONS
100
AcDbLine
 10
125.2486946646264
 20
154.4731369018554
 30
0.0
 11
122.2486946646264
 21
154.9731369018554
 31
0.0
  0
LINE
  5
1EA
330
1DE
100
AcDbEntity
  8
DIMENSIONS
100
AcDbLine
 10
125.2486946646264
 20
154.9731369018554
 30
0.0
 11
125.2586946646264
 21
154.9831369018554
 31
0.0
  0
MTEXT
  5
1EB
330
1DE
100
AcDbEntity
  8
DIMENSIONS
100
AcDbMText
 10
126.7486946646264
 20
154.9731369018554
 30
0.0
 40
2.275416666666667
 41
0.0
 46
0.0
 71
     5
 72
     1
  1
{\fArial|b0|i0|c0|p0;\C7;9}{\fArial|b0|i0|c0|p0;\C7;}
 73
     1
 44
1.0
  0
ENDBLK
  5
1E0
330
1DE
100
AcDbEntity
  8
0
100
AcDbBlockEnd
  0
BLOCK
  5
1EE
330
1ED
100
AcDbEntity
  8
0
100
AcDbBlockBegin
  2
BLOCK16
 70
     0
 10
0.0
 20
0.0
 30
0.0
  3
BLOCK16
  1

  0
LINE
  5
1F0
330
1ED
100
AcDbEntity
  8
DIMENSIONS
100
AcDbLine
 10
110.2486946646264
 20
163.9731369018554
 30
0.0
 11
110.2486946646264
 21
152.9731369018554
 31
0.0
  0
LINE
  5
1F1
330
1ED
100
AcDbEntity
  8
DIMENSIONS
100
AcDbLine
 10
101.2486946646264
 20
163.9731369018554
 30
0.0
 11
101.2486946646264
 21
152.9731369018554
 31
0.0
  0
LINE
  5
1F2
330
1ED
100
AcDbEntity
  8
DIMENSIONS
100
AcDbLine
 10
110.2486946646264
 20
154.9731369018554
 30
0.0
 11
107.2486946646264
 21
154.4731369018554
 31
0.0
  0
LINE
  5
1F3
330
1ED
100
AcDbEntity
  8
DIMENSIONS
100
AcDbLine
 10
107.2486946646264
 20
154.4731369018554
 30
0.0
 11
107.2486946646264
 21
155.4731369018554
 31
0.0
  0
LINE
  5
1F4
330
1ED
100
AcDbEntity
  8
DIMENSIONS
100
AcDbLine
 10
107.2486946646264
 20
155.4731369018554
 30
0.0
 11
110.2486946646264
 21
154.9731369018554
 31
0.0
  0
LINE
  5
1F5
330
1ED
100
AcDbEntity
  8
DIMENSIONS
100
AcDbLine
 10
107.2486946646264
 20
154.9731369018554
 30
0.0
 11
107.2586946646264
 21
154.9831369018554
 31
0.0
  0
LINE
  5
1F6
330
1ED
100
AcDbEntity
  8
DIMENSIONS
100
AcDbLine
 10
101.2486946646264
 20
154.9731369018554
 30
0.0
 11
104.2486946646264
 21
155.4731369018554
 31
0.0
  0
LINE
  5
1F7
330
1ED
100
AcDbEntity
  8
DIMENSIONS
100
AcDbLine
 10
104.2486946646264
 20
155.4731369018554
 30
0.0
 11
104.2486946646264
 21
154.4731369018554
 31
0.0
  0
LINE
  5
1F8
330
1ED
100
AcDbEntity
  8
DIMENSIONS
100
AcDbLine
 10
104.2486946646264
 20
154.4731369018554
 30
0.0
 11
101.2486946646264
 21
154.9731369018554
 31
0.0
  0
LINE
  5
1F9
330
1ED
100
AcDbEntity
  8
DIMENSIONS
100
AcDbLine
 10
104.2486946646264
 20
154.9731369018554
 30
0.0
 11
104.2586946646264
 21
154.9831369018554
 31
0.0
  0
MTEXT
  5
1FA
330
1ED
100
AcDbEntity
  8
DIMENSIONS
100
AcDbMText
 10
105.7486946646264
 20
154.9731369018554
 30
0.0
 40
2.275416666666667
 41
0.0
 46
0.0
 71
     5
 72
     1
  1
{\fArial|b0|i0|c0|p0;\C7;9}{\fArial|b0|i0|c0|p0;\C7;}
 73
     1
 44
1.0
  0
ENDBLK
  5
1EF
330
1ED
100
AcDbEntity
  8
0
100
AcDbBlockEnd
  0
BLOCK
  5
1FD
330
1FC
100
AcDbEntity
  8
0
100
AcDbBlockBegin
  2
BLOCK17
 70
     0
 10
0.0
 20
0.0
 30
0.0
  3
BLOCK17
  1

  0
LINE
  5
1FF
330
1FC
100
AcDbEntity
  8
DIMENSIONS
100
AcDbLine
 10
74.00960230192644
 20
165.9731369018554
 30
0.0
 11
62.24869466462643
 21
165.9731369018554
 31
0.0
  0
LINE
  5
200
330
1FC
100
AcDbEntity
  8
DIMENSIONS
100
AcDbLine
 10
74.00960230192644
 20
185.9731369018554
 30
0.0
 11
62.24869466462643
 21
185.9731369018554
 31
0.0
  0
LINE
  5
201
330
1FC
100
AcDbEntity
  8
DIMENSIONS
100
AcDbLine
 10
64.24869466462643
 20
165.9731369018554
 30
0.0
 11
63.74869466462643
 21
168.9731369018554
 31
0.0
  0
LINE
  5
202
330
1FC
100
AcDbEntity
  8
DIMENSIONS
100
AcDbLine
 10
63.74869466462643
 20
168.9731369018554
 30
0.0
 11
64.74869466462643
 21
168.9731369018554
 31
0.0
  0
LINE
  5
203
330
1FC
100
AcDbEntity
  8
DIMENSIONS
100
AcDbLine
 10
64.74869466462643
 20
168.9731369018554
 30
0.0
 11
64.24869466462643
 21
165.9731369018554
 31
0.0
  0
LINE
  5
204
330
1FC
100
AcDbEntity
  8
DIMENSIONS
100
AcDbLine
 10
64.24869466462643
 20
168.9731369018554
 30
0.0
 11
64.24869466462643
 21
172.3856372833251
 31
0.0
  0
LINE
  5
205
330
1FC
100
AcDbEntity
  8
DIMENSIONS
100
AcDbLine
 10
64.24869466462643
 20
185.9731369018554
 30
0.0
 11
64.74869466462643
 21
182.9731369018554
 31
0.0
  0
LINE
  5
206
330
1FC
100
AcDbEntity
  8
DIMENSIONS
100
AcDbLine
 10
64.74869466462643
 20
182.9731369018554
 30
0.0
 11
63.74869466462643
 21
182.9731369018554
 31
0.0
  0
LINE
  5
207
330
1FC
100
AcDbEntity
  8
DIMENSIONS
100
AcDbLine
 10
63.74869466462643
 20
182.9731369018554
 30
0.0
 11
64.24869466462643
 21
185.9731369018554
 31
0.0
  0
LINE
  5
208
330
1FC
100
AcDbEntity
  8
DIMENSIONS
100
AcDbLine
 10
64.24869466462643
 20
182.9731369018554
 30
0.0
 11
64.24869466462643
 21
179.56063747406
 31
0.0
  0
MTEXT
  5
209
330
1FC
100
AcDbEntity
  8
DIMENSIONS
100
AcDbMText
 10
64.24869466462643
 20
175.9731369018554
 30
0.0
 40
2.275416666666667
 41
0.0
 46
0.0
 71
     5
 72
     1
  1
{\fArial|b0|i0|c0|p0;\C7;20}{\fArial|b0|i0|c0|p0;\C7;}
 73
     1
 44
1.0
  0
ENDBLK
  5
1FE
330
1FC
100
AcDbEntity
  8
0
100
AcDbBlockEnd
  0
BLOCK
  5
20C
330
20B
100
AcDbEntity
  8
0
100
AcDbBlockBegin
  2
BLOCK18
 70
     0
 10
0.0
 20
0.0
 30
0.0
  3
BLOCK18
  1

  0
LINE
  5
20E
330
20B
100
AcDbEntity
  8
DIMENSIONS
100
AcDbLine
 10
74.00960230192644
 20
38.34524345397951
 30
0.0
 11
63.24869466462643
 21
38.34524345397951
 31
0.0
  0
LINE
  5
20F
330
20B
100
AcDbEntity
  8
DIMENSIONS
100
AcDbLine
 10
74.00960230192644
 20
18.34524345397951
 30
0.0
 11
63.24869466462643
 21
18.34524345397951
 31
0.0
  0
LINE
  5
210
330
20B
100
AcDbEntity
  8
DIMENSIONS
100
AcDbLine
 10
65.24869466462641
 20
38.34524345397951
 30
0.0
 11
65.74869466462641
 21
35.34524345397951
 31
0.0
  0
LINE
  5
211
330
20B
100
AcDbEntity
  8
DIMENSIONS
100
AcDbLine
 10
65.74869466462641
 20
35.34524345397951
 30
0.0
 11
64.74869466462641
 21
35.34524345397951
 31
0.0
  0
LINE
  5
212
330
20B
100
AcDbEntity
  8
DIMENSIONS
100
AcDbLine
 10
64.74869466462641
 20
35.34524345397951
 30
0.0
 11
65.24869466462641
 21
38.34524345397951
 31
0.0
  0
LINE
  5
213
330
20B
100
AcDbEntity
  8
DIMENSIONS
100
AcDbLine
 10
65.24869466462643
 20
35.34524345397951
 30
0.0
 11
65.24869466462643
 21
31.9327440261841
 31
0.0
  0
LINE
  5
214
330
20B
100
AcDbEntity
  8
DIMENSIONS
100
AcDbLine
 10
65.24869466462641
 20
18.34524345397951
 30
0.0
 11
64.74869466462641
 21
21.34524345397951
 31
0.0
  0
LINE
  5
215
330
20B
100
AcDbEntity
  8
DIMENSIONS
100
AcDbLine
 10
64.74869466462641
 20
21.34524345397951
 30
0.0
 11
65.74869466462641
 21
21.34524345397951
 31
0.0
  0
LINE
  5
216
330
20B
100
AcDbEntity
  8
DIMENSIONS
100
AcDbLine
 10
65.74869466462641
 20
21.34524345397951
 30
0.0
 11
65.24869466462641
 21
18.34524345397951
 31
0.0
  0
LINE
  5
217
330
20B
100
AcDbEntity
  8
DIMENSIONS
100
AcDbLine
 10
65.24869466462643
 20
21.34524345397951
 30
0.0
 11
65.24869466462643
 21
24.75774383544923
 31
0.0
  0
MTEXT
  5
218
330
20B
100
AcDbEntity
  8
DIMENSIONS
100
AcDbMText
 10
65.24869466462643
 20
28.34524345397951
 30
0.0
 40
2.275416666666667
 41
0.0
 46
0.0
 71
     5
 72
     1
  1
{\fArial|b0|i0|c0|p0;\C7;20}{\fArial|b0|i0|c0|p0;\C7;}
 73
     1
 44
1.0
  0
ENDBLK
  5
20D
330
20B
100
AcDbEntity
  8
0
100
AcDbBlockEnd
  0
BLOCK
  5
21B
330
21A
100
AcDbEntity
  8
0
100
AcDbBlockBegin
  2
BLOCK19
 70
     0
 10
0.0
 20
0.0
 30
0.0
  3
BLOCK19
  1

  0
LINE
  5
21D
330
21A
100
AcDbEntity
  8
DIMENSIONS
100
AcDbLine
 10
178.0824783420777
 20
81.35553901724569
 30
0.0
 11
192.0824813842777
 21
81.35553901724569
 31
0.0
  0
LINE
  5
21E
330
21A
100
AcDbEntity
  8
DIMENSIONS
100
AcDbLine
 10
178.0824783420777
 20
89.75554324382568
 30
0.0
 11
192.0824813842777
 21
89.75554324382568
 31
0.0
  0
LINE
  5
21F
330
21A
100
AcDbEntity
  8
DIMENSIONS
100
AcDbLine
 10
190.0824813842777
 20
81.35553901724569
 30
0.0
 11
189.5824813842777
 21
84.35553901724569
 31
0.0
  0
LINE
  5
220
330
21A
100
AcDbEntity
  8
DIMENSIONS
100
AcDbLine
 10
189.5824813842777
 20
84.35553901724569
 30
0.0
 11
190.5824813842777
 21
84.35553901724569
 31
0.0
  0
LINE
  5
221
330
21A
100
AcDbEntity
  8
DIMENSIONS
100
AcDbLine
 10
190.5824813842777
 20
84.35553901724569
 30
0.0
 11
190.0824813842777
 21
81.35553901724569
 31
0.0
  0
LINE
  5
222
330
21A
100
AcDbEntity
  8
DIMENSIONS
100
AcDbLine
 10
190.0824813842777
 20
84.35553901724569
 30
0.0
 11
190.0924813842777
 21
84.3655390172457
 31
0.0
  0
LINE
  5
223
330
21A
100
AcDbEntity
  8
DIMENSIONS
100
AcDbLine
 10
190.0824813842777
 20
89.75554324382568
 30
0.0
 11
190.5824813842777
 21
86.75554324382568
 31
0.0
  0
LINE
  5
224
330
21A
100
AcDbEntity
  8
DIMENSIONS
100
AcDbLine
 10
190.5824813842777
 20
86.75554324382568
 30
0.0
 11
189.5824813842777
 21
86.75554324382568
 31
0.0
  0
LINE
  5
225
330
21A
100
AcDbEntity
  8
DIMENSIONS
100
AcDbLine
 10
189.5824813842777
 20
86.75554324382568
 30
0.0
 11
190.0824813842777
 21
89.75554324382568
 31
0.0
  0
LINE
  5
226
330
21A
100
AcDbEntity
  8
DIMENSIONS
100
AcDbLine
 10
190.0824813842777
 20
86.75554324382568
 30
0.0
 11
190.0924813842777
 21
86.76554324382569
 31
0.0
  0
MTEXT
  5
227
330
21A
100
AcDbEntity
  8
DIMENSIONS
100
AcDbMText
 10
190.0824813842777
 20
85.55554113053569
 30
0.0
 40
2.275416666666667
 41
0.0
 46
0.0
 71
     5
 72
     1
  1
{\fAlibre Symbols|b0|i0|c0|p0;\C7;n}{\fArial|b0|i0|c0|p0;\C7;8,4}{\fArial|b0|i0|c0|p0;\C7;}
 73
     1
 44
1.0
  0
ENDBLK
  5
21C
330
21A
100
AcDbEntity
  8
0
100
AcDbBlockEnd
  0
BLOCK
  5
22A
330
229
100
AcDbEntity
  8
0
100
AcDbBlockBegin
  2
BLOCK20
 70
     0
 10
0.0
 20
0.0
 30
0.0
  3
BLOCK20
  1

  0
LINE
  5
22C
330
229
100
AcDbEntity
  8
DIMENSIONS
100
AcDbLine
 10
164.0824813842777
 20
73.55554113053569
 30
0.0
 11
160.0824813842777
 21
73.55554113053569
 31
0.0
  0
LINE
  5
22D
330
229
100
AcDbEntity
  8
DIMENSIONS
100
AcDbLine
 10
174.0824783420777
 20
85.55554113053569
 30
0.0
 11
160.0824813842777
 21
85.55554113053569
 31
0.0
  0
LINE
  5
22E
330
229
100
AcDbEntity
  8
DIMENSIONS
100
AcDbLine
 10
162.0824813842777
 20
73.55554113053569
 30
0.0
 11
161.5824813842777
 21
76.55554113053569
 31
0.0
  0
LINE
  5
22F
330
229
100
AcDbEntity
  8
DIMENSIONS
100
AcDbLine
 10
161.5824813842777
 20
76.55554113053569
 30
0.0
 11
162.5824813842777
 21
76.55554113053569
 31
0.0
  0
LINE
  5
230
330
229
100
AcDbEntity
  8
DIMENSIONS
100
AcDbLine
 10
162.5824813842777
 20
76.55554113053569
 30
0.0
 11
162.0824813842777
 21
73.55554113053569
 31
0.0
  0
LINE
  5
231
330
229
100
AcDbEntity
  8
DIMENSIONS
100
AcDbLine
 10
162.0824813842777
 20
76.55554113053569
 30
0.0
 11
162.0924813842777
 21
76.56554113053569
 31
0.0
  0
LINE
  5
232
330
229
100
AcDbEntity
  8
DIMENSIONS
100
AcDbLine
 10
162.0824813842777
 20
85.55554113053569
 30
0.0
 11
162.5824813842777
 21
82.55554113053569
 31
0.0
  0
LINE
  5
233
330
229
100
AcDbEntity
  8
DIMENSIONS
100
AcDbLine
 10
162.5824813842777
 20
82.55554113053569
 30
0.0
 11
161.5824813842777
 21
82.55554113053569
 31
0.0
  0
LINE
  5
234
330
229
100
AcDbEntity
  8
DIMENSIONS
100
AcDbLine
 10
161.5824813842777
 20
82.55554113053569
 30
0.0
 11
162.0824813842777
 21
85.55554113053569
 31
0.0
  0
LINE
  5
235
330
229
100
AcDbEntity
  8
DIMENSIONS
100
AcDbLine
 10
162.0824813842777
 20
82.55554113053569
 30
0.0
 11
162.0924813842777
 21
82.56554113053569
 31
0.0
  0
MTEXT
  5
236
330
229
100
AcDbEntity
  8
DIMENSIONS
100
AcDbMText
 10
162.0824813842777
 20
79.55554113053569
 30
0.0
 40
2.275416666666667
 41
0.0
 46
0.0
 71
     5
 72
     1
  1
{\fArial|b0|i0|c0|p0;\C7;12}{\fArial|b0|i0|c0|p0;\C7;}
 73
     1
 44
1.0
  0
ENDBLK
  5
22B
330
229
100
AcDbEntity
  8
0
100
AcDbBlockEnd
  0
BLOCK
  5
239
330
238
100
AcDbEntity
  8
0
100
AcDbBlockBegin
  2
BLOCK21
 70
     0
 10
0.0
 20
0.0
 30
0.0
  3
BLOCK21
  1

  0
LINE
  5
23B
330
238
100
AcDbEntity
  8
DIMENSIONS
100
AcDbLine
 10
164.0824813842777
 20
93.8555411305715
 30
0.0
 11
160.0824813842777
 21
93.8555411305715
 31
0.0
  0
LINE
  5
23C
330
238
100
AcDbEntity
  8
DIMENSIONS
100
AcDbLine
 10
174.0824783420777
 20
85.55554113053569
 30
0.0
 11
160.0824813842777
 21
85.55554113053569
 31
0.0
  0
LINE
  5
23D
330
238
100
AcDbEntity
  8
DIMENSIONS
100
AcDbLine
 10
162.0824813842777
 20
93.8555411305715
 30
0.0
 11
162.5824813842777
 21
90.8555411305715
 31
0.0
  0
LINE
  5
23E
330
238
100
AcDbEntity
  8
DIMENSIONS
100
AcDbLine
 10
162.5824813842777
 20
90.8555411305715
 30
0.0
 11
161.5824813842777
 21
90.8555411305715
 31
0.0
  0
LINE
  5
23F
330
238
100
AcDbEntity
  8
DIMENSIONS
100
AcDbLine
 10
161.5824813842777
 20
90.8555411305715
 30
0.0
 11
162.0824813842777
 21
93.8555411305715
 31
0.0
  0
LINE
  5
240
330
238
100
AcDbEntity
  8
DIMENSIONS
100
AcDbLine
 10
162.0824813842777
 20
90.8555411305715
 30
0.0
 11
162.0924813842777
 21
90.8655411305715
 31
0.0
  0
LINE
  5
241
330
238
100
AcDbEntity
  8
DIMENSIONS
100
AcDbLine
 10
162.0824813842777
 20
85.55554113053569
 30
0.0
 11
161.5824813842777
 21
88.55554113053569
 31
0.0
  0
LINE
  5
242
330
238
100
AcDbEntity
  8
DIMENSIONS
100
AcDbLine
 10
161.5824813842777
 20
88.55554113053569
 30
0.0
 11
162.5824813842777
 21
88.55554113053569
 31
0.0
  0
LINE
  5
243
330
238
100
AcDbEntity
  8
DIMENSIONS
100
AcDbLine
 10
162.5824813842777
 20
88.55554113053569
 30
0.0
 11
162.0824813842777
 21
85.55554113053569
 31
0.0
  0
LINE
  5
244
330
238
100
AcDbEntity
  8
DIMENSIONS
100
AcDbLine
 10
162.0824813842777
 20
88.55554113053569
 30
0.0
 11
162.0924813842777
 21
88.56554113053569
 31
0.0
  0
MTEXT
  5
245
330
238
100
AcDbEntity
  8
DIMENSIONS
100
AcDbMText
 10
162.0824813842777
 20
89.7055411305536
 30
0.0
 40
2.275416666666667
 41
0.0
 46
0.0
 71
     5
 72
     1
  1
{\fArial|b0|i0|c0|p0;\C7;8,34}{\fArial|b0|i0|c0|p0;\C7;}
 73
     1
 44
1.0
  0
ENDBLK
  5
23A
330
238
100
AcDbEntity
  8
0
100
AcDbBlockEnd
  0
BLOCK
  5
248
330
247
100
AcDbEntity
  8
0
100
AcDbBlockBegin
  2
BLOCK22
 70
     0
 10
0.0
 20
0.0
 30
0.0
  3
BLOCK22
  1

  0
LINE
  5
24A
330
247
100
AcDbEntity
  8
DIMENSIONS
100
AcDbLine
 10
43.39314150810242
 20
96.21579516833569
 30
0.0
 11
55.39314150810242
 21
96.21579516833569
 31
0.0
  0
LINE
  5
24B
330
247
100
AcDbEntity
  8
DIMENSIONS
100
AcDbLine
 10
43.39314150810242
 20
73.55554113053569
 30
0.0
 11
55.39314150810242
 21
73.55554113053569
 31
0.0
  0
LINE
  5
24C
330
247
100
AcDbEntity
  8
DIMENSIONS
100
AcDbLine
 10
53.39314150810242
 20
96.21579516833569
 30
0.0
 11
53.89314150810242
 21
93.21579516833569
 31
0.0
  0
LINE
  5
24D
330
247
100
AcDbEntity
  8
DIMENSIONS
100
AcDbLine
 10
53.89314150810242
 20
93.21579516833569
 30
0.0
 11
52.89314150810242
 21
93.21579516833569
 31
0.0
  0
LINE
  5
24E
330
247
100
AcDbEntity
  8
DIMENSIONS
100
AcDbLine
 10
52.89314150810242
 20
93.21579516833569
 30
0.0
 11
53.39314150810242
 21
96.21579516833569
 31
0.0
  0
LINE
  5
24F
330
247
100
AcDbEntity
  8
DIMENSIONS
100
AcDbLine
 10
53.39314150810242
 20
93.21579516833569
 30
0.0
 11
53.39314150810242
 21
88.47316655778178
 31
0.0
  0
LINE
  5
250
330
247
100
AcDbEntity
  8
DIMENSIONS
100
AcDbLine
 10
53.39314150810242
 20
73.55554113053569
 30
0.0
 11
52.89314150810242
 21
76.55554113053569
 31
0.0
  0
LINE
  5
251
330
247
100
AcDbEntity
  8
DIMENSIONS
100
AcDbLine
 10
52.89314150810242
 20
76.55554113053569
 30
0.0
 11
53.89314150810242
 21
76.55554113053569
 31
0.0
  0
LINE
  5
252
330
247
100
AcDbEntity
  8
DIMENSIONS
100
AcDbLine
 10
53.89314150810242
 20
76.55554113053569
 30
0.0
 11
53.39314150810242
 21
73.55554113053569
 31
0.0
  0
LINE
  5
253
330
247
100
AcDbEntity
  8
DIMENSIONS
100
AcDbLine
 10
53.39314150810242
 20
76.55554113053569
 30
0.0
 11
53.39314150810242
 21
81.29816732072123
 31
0.0
  0
MTEXT
  5
254
330
247
100
AcDbEntity
  8
DIMENSIONS
100
AcDbMText
 10
53.39314150810242
 20
84.88566814943569
 30
0.0
 40
2.275416666666667
 41
0.0
 46
0.0
 71
     5
 72
     1
  1
{\fArial|b0|i0|c0|p0;\C7;22,66}{\fArial|b0|i0|c0|p0;\C7;}
 73
     1
 44
1.0
  0
ENDBLK
  5
249
330
247
100
AcDbEntity
  8
0
100
AcDbBlockEnd
  0
BLOCK
  5
257
330
256
100
AcDbEntity
  8
0
100
AcDbBlockBegin
  2
BLOCK23
 70
     0
 10
0.0
 20
0.0
 30
0.0
  3
BLOCK23
  1

  0
LINE
  5
259
330
256
100
AcDbEntity
  8
DIMENSIONS
100
AcDbLine
 10
29.39314455030242
 20
81.35553901724569
 30
0.0
 11
15.39314150810242
 21
81.35553901724569
 31
0.0
  0
LINE
  5
25A
330
256
100
AcDbEntity
  8
DIMENSIONS
100
AcDbLine
 10
29.39314455030242
 20
89.75554324382568
 30
0.0
 11
15.39314150810242
 21
89.75554324382568
 31
0.0
  0
LINE
  5
25B
330
256
100
AcDbEntity
  8
DIMENSIONS
100
AcDbLine
 10
17.39314150810242
 20
81.35553901724569
 30
0.0
 11
16.89314150810242
 21
84.35553901724569
 31
0.0
  0
LINE
  5
25C
330
256
100
AcDbEntity
  8
DIMENSIONS
100
AcDbLine
 10
16.89314150810242
 20
84.35553901724569
 30
0.0
 11
17.89314150810242
 21
84.35553901724569
 31
0.0
  0
LINE
  5
25D
330
256
100
AcDbEntity
  8
DIMENSIONS
100
AcDbLine
 10
17.89314150810242
 20
84.35553901724569
 30
0.0
 11
17.39314150810242
 21
81.35553901724569
 31
0.0
  0
LINE
  5
25E
330
256
100
AcDbEntity
  8
DIMENSIONS
100
AcDbLine
 10
17.39314150810242
 20
84.35553901724569
 30
0.0
 11
17.40314150810242
 21
84.3655390172457
 31
0.0
  0
LINE
  5
25F
330
256
100
AcDbEntity
  8
DIMENSIONS
100
AcDbLine
 10
17.39314150810242
 20
89.75554324382568
 30
0.0
 11
17.89314150810242
 21
86.75554324382568
 31
0.0
  0
LINE
  5
260
330
256
100
AcDbEntity
  8
DIMENSIONS
100
AcDbLine
 10
17.89314150810242
 20
86.75554324382568
 30
0.0
 11
16.89314150810242
 21
86.75554324382568
 31
0.0
  0
LINE
  5
261
330
256
100
AcDbEntity
  8
DIMENSIONS
100
AcDbLine
 10
16.89314150810242
 20
86.75554324382568
 30
0.0
 11
17.39314150810242
 21
89.75554324382568
 31
0.0
  0
LINE
  5
262
330
256
100
AcDbEntity
  8
DIMENSIONS
100
AcDbLine
 10
17.39314150810242
 20
86.75554324382568
 30
0.0
 11
17.40314150810242
 21
86.76554324382569
 31
0.0
  0
MTEXT
  5
263
330
256
100
AcDbEntity
  8
DIMENSIONS
100
AcDbMText
 10
17.39314150810242
 20
85.55554113053569
 30
0.0
 40
2.275416666666667
 41
0.0
 46
0.0
 71
     5
 72
     1
  1
{\fAlibre Symbols|b0|i0|c0|p0;\C7;n}{\fArial|b0|i0|c0|p0;\C7;8,4}{\fArial|b0|i0|c0|p0;\C7;}
 73
     1
 44
1.0
  0
ENDBLK
  5
258
330
256
100
AcDbEntity
  8
0
100
AcDbBlockEnd
  0
BLOCK
  5
266
330
265
100
AcDbEntity
  8
0
100
AcDbBlockBegin
  2
BLOCK24
 70
     0
 10
0.0
 20
0.0
 30
0.0
  3
BLOCK24
  1

  0
LINE
  5
268
330
265
100
AcDbEntity
  8
DIMENSIONS
100
AcDbLine
 10
33.39314455030242
 20
85.55554113053569
 30
0.0
 11
47.39314150810242
 21
85.55554113053569
 31
0.0
  0
LINE
  5
269
330
265
100
AcDbEntity
  8
DIMENSIONS
100
AcDbLine
 10
43.39314150810242
 20
73.55554113053569
 30
0.0
 11
47.39314150810242
 21
73.55554113053569
 31
0.0
  0
LINE
  5
26A
330
265
100
AcDbEntity
  8
DIMENSIONS
100
AcDbLine
 10
45.39314150810242
 20
85.55554113053569
 30
0.0
 11
45.89314150810242
 21
82.55554113053569
 31
0.0
  0
LINE
  5
26B
330
265
100
AcDbEntity
  8
DIMENSIONS
100
AcDbLine
 10
45.89314150810242
 20
82.55554113053569
 30
0.0
 11
44.89314150810242
 21
82.55554113053569
 31
0.0
  0
LINE
  5
26C
330
265
100
AcDbEntity
  8
DIMENSIONS
100
AcDbLine
 10
44.89314150810242
 20
82.55554113053569
 30
0.0
 11
45.39314150810242
 21
85.55554113053569
 31
0.0
  0
LINE
  5
26D
330
265
100
AcDbEntity
  8
DIMENSIONS
100
AcDbLine
 10
45.39314150810242
 20
82.55554113053569
 30
0.0
 11
45.40314150810242
 21
82.56554113053569
 31
0.0
  0
LINE
  5
26E
330
265
100
AcDbEntity
  8
DIMENSIONS
100
AcDbLine
 10
45.39314150810242
 20
73.55554113053569
 30
0.0
 11
44.89314150810242
 21
76.55554113053569
 31
0.0
  0
LINE
  5
26F
330
265
100
AcDbEntity
  8
DIMENSIONS
100
AcDbLine
 10
44.89314150810242
 20
76.55554113053569
 30
0.0
 11
45.89314150810242
 21
76.55554113053569
 31
0.0
  0
LINE
  5
270
330
265
100
AcDbEntity
  8
DIMENSIONS
100
AcDbLine
 10
45.89314150810242
 20
76.55554113053569
 30
0.0
 11
45.39314150810242
 21
73.55554113053569
 31
0.0
  0
LINE
  5
271
330
265
100
AcDbEntity
  8
DIMENSIONS
100
AcDbLine
 10
45.39314150810242
 20
76.55554113053569
 30
0.0
 11
45.40314150810242
 21
76.56554113053569
 31
0.0
  0
MTEXT
  5
272
330
265
100
AcDbEntity
  8
DIMENSIONS
100
AcDbMText
 10
45.39314150810242
 20
79.55554113053569
 30
0.0
 40
2.275416666666667
 41
0.0
 46
0.0
 71
     5
 72
     1
  1
{\fArial|b0|i0|c0|p0;\C7;12}{\fArial|b0|i0|c0|p0;\C7;}
 73
     1
 44
1.0
  0
ENDBLK
  5
267
330
265
100
AcDbEntity
  8
0
100
AcDbBlockEnd
  0
BLOCK
  5
275
330
274
100
AcDbEntity
  8
0
100
AcDbBlockBegin
  2
BLOCK25
 70
     0
 10
0.0
 20
0.0
 30
0.0
  3
BLOCK25
  1

  0
LINE
  5
277
330
274
100
AcDbEntity
  8
DIMENSIONS
100
AcDbLine
 10
43.39314150810242
 20
73.55554113053569
 30
0.0
 11
55.39314150810242
 21
73.55554113053569
 31
0.0
  0
LINE
  5
278
330
274
100
AcDbEntity
  8
DIMENSIONS
100
AcDbLine
 10
43.39314150810242
 20
64.55554113053569
 30
0.0
 11
55.39314150810242
 21
64.55554113053569
 31
0.0
  0
LINE
  5
279
330
274
100
AcDbEntity
  8
DIMENSIONS
100
AcDbLine
 10
53.39314150810242
 20
73.55554113053569
 30
0.0
 11
53.89314150810242
 21
70.55554113053569
 31
0.0
  0
LINE
  5
27A
330
274
100
AcDbEntity
  8
DIMENSIONS
100
AcDbLine
 10
53.89314150810242
 20
70.55554113053569
 30
0.0
 11
52.89314150810242
 21
70.55554113053569
 31
0.0
  0
LINE
  5
27B
330
274
100
AcDbEntity
  8
DIMENSIONS
100
AcDbLine
 10
52.89314150810242
 20
70.55554113053569
 30
0.0
 11
53.39314150810242
 21
73.55554113053569
 31
0.0
  0
LINE
  5
27C
330
274
100
AcDbEntity
  8
DIMENSIONS
100
AcDbLine
 10
53.39314150810242
 20
70.55554113053569
 30
0.0
 11
53.40314150810242
 21
70.56554113053569
 31
0.0
  0
LINE
  5
27D
330
274
100
AcDbEntity
  8
DIMENSIONS
100
AcDbLine
 10
53.39314150810242
 20
64.55554113053569
 30
0.0
 11
52.89314150810242
 21
67.55554113053569
 31
0.0
  0
LINE
  5
27E
330
274
100
AcDbEntity
  8
DIMENSIONS
100
AcDbLine
 10
52.89314150810242
 20
67.55554113053569
 30
0.0
 11
53.89314150810242
 21
67.55554113053569
 31
0.0
  0
LINE
  5
27F
330
274
100
AcDbEntity
  8
DIMENSIONS
100
AcDbLine
 10
53.89314150810242
 20
67.55554113053569
 30
0.0
 11
53.39314150810242
 21
64.55554113053569
 31
0.0
  0
LINE
  5
280
330
274
100
AcDbEntity
  8
DIMENSIONS
100
AcDbLine
 10
53.39314150810242
 20
67.55554113053569
 30
0.0
 11
53.40314150810242
 21
67.56554113053569
 31
0.0
  0
MTEXT
  5
281
330
274
100
AcDbEntity
  8
DIMENSIONS
100
AcDbMText
 10
53.39314150810242
 20
69.05554113053569
 30
0.0
 40
2.275416666666667
 41
0.0
 46
0.0
 71
     5
 72
     1
  1
{\fArial|b0|i0|c0|p0;\C7;9}{\fArial|b0|i0|c0|p0;\C7;}
 73
     1
 44
1.0
  0
ENDBLK
  5
276
330
274
100
AcDbEntity
  8
0
100
AcDbBlockEnd
  0
BLOCK
  5
284
330
283
100
AcDbEntity
  8
0
100
AcDbBlockBegin
  2
BLOCK26
 70
     0
 10
0.0
 20
0.0
 30
0.0
  3
BLOCK26
  1

  0
LINE
  5
286
330
283
100
AcDbEntity
  8
DIMENSIONS
100
AcDbLine
 10
41.39314150810242
 20
62.55554113053569
 30
0.0
 11
41.39314150810242
 21
58.55554113053568
 31
0.0
  0
LINE
  5
287
330
283
100
AcDbEntity
  8
DIMENSIONS
100
AcDbLine
 10
21.39314150810242
 20
62.55554113053569
 30
0.0
 11
21.39314150810242
 21
58.55554113053568
 31
0.0
  0
LINE
  5
288
330
283
100
AcDbEntity
  8
DIMENSIONS
100
AcDbLine
 10
41.39314150810242
 20
60.55554113053568
 30
0.0
 11
38.39314150810242
 21
60.05554113053568
 31
0.0
  0
LINE
  5
289
330
283
100
AcDbEntity
  8
DIMENSIONS
100
AcDbLine
 10
38.39314150810242
 20
60.05554113053568
 30
0.0
 11
38.39314150810242
 21
61.05554113053568
 31
0.0
  0
LINE
  5
28A
330
283
100
AcDbEntity
  8
DIMENSIONS
100
AcDbLine
 10
38.39314150810242
 20
61.05554113053568
 30
0.0
 11
41.39314150810242
 21
60.55554113053568
 31
0.0
  0
LINE
  5
28B
330
283
100
AcDbEntity
  8
DIMENSIONS
100
AcDbLine
 10
38.39314150810242
 20
60.55554113053568
 30
0.0
 11
34.98064208030701
 21
60.55554113053569
 31
0.0
  0
LINE
  5
28C
330
283
100
AcDbEntity
  8
DIMENSIONS
100
AcDbLine
 10
21.39314150810242
 20
60.55554113053568
 30
0.0
 11
24.39314150810242
 21
61.05554113053568
 31
0.0
  0
LINE
  5
28D
330
283
100
AcDbEntity
  8
DIMENSIONS
100
AcDbLine
 10
24.39314150810242
 20
61.05554113053568
 30
0.0
 11
24.39314150810242
 21
60.05554113053568
 31
0.0
  0
LINE
  5
28E
330
283
100
AcDbEntity
  8
DIMENSIONS
100
AcDbLine
 10
24.39314150810242
 20
60.05554113053568
 30
0.0
 11
21.39314150810242
 21
60.55554113053568
 31
0.0
  0
LINE
  5
28F
330
283
100
AcDbEntity
  8
DIMENSIONS
100
AcDbLine
 10
24.39314150810242
 20
60.55554113053568
 30
0.0
 11
27.80564188957214
 21
60.55554113053569
 31
0.0
  0
MTEXT
  5
290
330
283
100
AcDbEntity
  8
DIMENSIONS
100
AcDbMText
 10
31.39314150810242
 20
60.55554113053568
 30
0.0
 40
2.275416666666667
 41
0.0
 46
0.0
 71
     5
 72
     1
  1
{\fArial|b0|i0|c0|p0;\C7;20}{\fArial|b0|i0|c0|p0;\C7;}
 73
     1
 44
1.0
  0
ENDBLK
  5
285
330
283
100
AcDbEntity
  8
0
100
AcDbBlockEnd
  0
BLOCK
  5
294
330
293
100
AcDbEntity
  8
0
100
AcDbBlockBegin
  2
BLOCK27
 70
     0
 10
0.0
 20
0.0
 30
0.0
  3
BLOCK27
  1

  0
LINE
  5
296
330
293
100
AcDbEntity
  8
CONTINUOUS
100
AcDbLine
 10
9.99999999999998
 20
9.99999999999995
 30
0.0
 11
287.0
 21
10.0
 31
0.0
  0
LINE
  5
297
330
293
100
AcDbEntity
  8
CONTINUOUS
100
AcDbLine
 10
141.942321777344
 20
5.0
 30
0.0
 11
241.942321777344
 21
5.0
 31
0.0
  0
LINE
  5
298
330
293
100
AcDbEntity
  8
CONTINUOUS
100
AcDbLine
 10
0.0
 20
0.0
 30
0.0
 11
-0.0000000000000012
 21
10.0
 31
0.0
  0
LINE
  5
299
330
293
100
AcDbEntity
  8
CONTINUOUS
100
AcDbLine
 10
0.0
 20
0.0
 30
0.0
 11
10.0
 21
0.0000000000000018
 31
0.0
  0
LINE
  5
29A
330
293
100
AcDbEntity
  8
CONTINUOUS
100
AcDbLine
 10
141.942321777344
 20
5.0
 30
0.0
 11
141.942321777344
 21
10.0
 31
0.0
  0
LINE
  5
29B
330
293
100
AcDbEntity
  8
CONTINUOUS
100
AcDbLine
 10
151.942321777344
 20
5.0
 30
0.0
 11
151.942321777344
 21
10.0
 31
0.0
  0
LINE
  5
29C
330
293
100
AcDbEntity
  8
CONTINUOUS
100
AcDbLine
 10
161.942321777344
 20
5.0
 30
0.0
 11
161.942321777344
 21
10.0
 31
0.0
  0
LINE
  5
29D
330
293
100
AcDbEntity
  8
CONTINUOUS
100
AcDbLine
 10
10.0
 20
57.5
 30
0.0
 11
5.0
 21
57.5
 31
0.0
  0
LINE
  5
29E
330
293
100
AcDbEntity
  8
CONTINUOUS
100
AcDbLine
 10
10.0
 20
105.0
 30
0.0
 11
5.0
 21
105.0
 31
0.0
  0
LINE
  5
29F
330
293
100
AcDbEntity
  8
CONTINUOUS
100
AcDbLine
 10
191.942321777344
 20
20.0
 30
0.0
 11
286.942321777344
 21
20.0
 31
0.0
  0
LINE
  5
2A0
330
293
100
AcDbEntity
  8
CONTINUOUS
100
AcDbLine
 10
191.942321777344
 20
10.0
 30
0.0
 11
191.942321777344
 21
5.0
 31
0.0
  0
LINE
  5
2A1
330
293
100
AcDbEntity
  8
CONTINUOUS
100
AcDbLine
 10
171.942321777344
 20
5.0
 30
0.0
 11
171.942321777344
 21
10.0
 31
0.0
  0
LINE
  5
2A2
330
293
100
AcDbEntity
  8
CONTINUOUS
100
AcDbLine
 10
181.942321777344
 20
5.0
 30
0.0
 11
181.942321777344
 21
10.0
 31
0.0
  0
LINE
  5
2A3
330
293
100
AcDbEntity
  8
CONTINUOUS
100
AcDbLine
 10
201.942321777344
 20
5.0
 30
0.0
 11
201.942321777344
 21
10.0
 31
0.0
  0
LINE
  5
2A4
330
293
100
AcDbEntity
  8
CONTINUOUS
100
AcDbLine
 10
211.942321777344
 20
5.0
 30
0.0
 11
211.942321777344
 21
10.0
 31
0.0
  0
LINE
  5
2A5
330
293
100
AcDbEntity
  8
CONTINUOUS
100
AcDbLine
 10
221.942321777344
 20
5.0
 30
0.0
 11
221.942321777344
 21
10.0
 31
0.0
  0
LINE
  5
2A6
330
293
100
AcDbEntity
  8
CONTINUOUS
100
AcDbLine
 10
191.942321777344
 20
10.0
 30
0.0
 11
191.942321777344
 21
30.0
 31
0.0
  0
LINE
  5
2A7
330
293
100
AcDbEntity
  8
CONTINUOUS
100
AcDbLine
 10
191.942321777344
 20
10.0
 30
0.0
 11
191.942321777344
 21
15.0
 31
0.0
  0
LINE
  5
2A8
330
293
100
AcDbEntity
  8
CONTINUOUS
100
AcDbLine
 10
297.0
 20
0.0
 30
0.0
 11
297.0
 21
10.0
 31
0.0
  0
LINE
  5
2A9
330
293
100
AcDbEntity
  8
CONTINUOUS
100
AcDbLine
 10
241.942321777344
 20
5.0
 30
0.0
 11
241.942321777344
 21
10.0
 31
0.0
  0
LINE
  5
2AA
330
293
100
AcDbEntity
  8
CONTINUOUS
100
AcDbLine
 10
231.942321777344
 20
5.0
 30
0.0
 11
231.942321777344
 21
10.0
 31
0.0
  0
LINE
  5
2AB
330
293
100
AcDbEntity
  8
CONTINUOUS
100
AcDbLine
 10
296.942321777344
 20
0.0
 30
0.0
 11
286.942321777344
 21
0.0
 31
0.0
  0
LINE
  5
2AC
330
293
100
AcDbEntity
  8
CONTINUOUS
100
AcDbLine
 10
251.942321777344
 20
10.0
 30
0.0
 11
251.942321777344
 21
20.0
 31
0.0
  0
LINE
  5
2AD
330
293
100
AcDbEntity
  8
CONTINUOUS
100
AcDbLine
 10
266.942321777344
 20
10.0
 30
0.0
 11
266.942321777344
 21
20.0
 31
0.0
  0
LINE
  5
2AE
330
293
100
AcDbEntity
  8
CONTINUOUS
100
AcDbLine
 10
291.942321777344
 20
57.5
 30
0.0
 11
286.942321777344
 21
57.5
 31
0.0
  0
LINE
  5
2AF
330
293
100
AcDbEntity
  8
CONTINUOUS
100
AcDbLine
 10
291.942321777344
 20
105.0
 30
0.0
 11
286.942321777344
 21
105.0
 31
0.0
  0
LINE
  5
2B0
330
293
100
AcDbEntity
  8
CONTINUOUS
100
AcDbLine
 10
116.958892822266
 20
193.989334106445
 30
0.0
 11
286.958892822266
 21
193.989334106445
 31
0.0
  0
LINE
  5
2B1
330
293
100
AcDbEntity
  8
CONTINUOUS
100
AcDbLine
 10
-0.0000000000000249
 20
209.989334106445
 30
0.0
 11
-0.0000000000000249
 21
199.989334106445
 31
0.0
  0
LINE
  5
2B2
330
293
100
AcDbEntity
  8
CONTINUOUS
100
AcDbLine
 10
10.0165710449219
 20
209.989334106445
 30
0.0
 11
0.016571044921875
 21
209.989334106445
 31
0.0
  0
LINE
  5
2B3
330
293
100
AcDbEntity
  8
CONTINUOUS
100
AcDbLine
 10
194.666666666667
 20
199.989334106445
 30
0.0
 11
194.666666666667
 21
204.989334106445
 31
0.0
  0
LINE
  5
2B4
330
293
100
AcDbEntity
  8
CONTINUOUS
100
AcDbLine
 10
116.942321777344
 20
193.989334106445
 30
0.0
 11
116.942321777344
 21
199.989334106445
 31
0.0
  0
LINE
  5
2B5
330
293
100
AcDbEntity
  8
CONTINUOUS
100
AcDbLine
 10
128.958892822266
 20
193.989334106445
 30
0.0
 11
128.958892822266
 21
199.989334106445
 31
0.0
  0
LINE
  5
2B6
330
293
100
AcDbEntity
  8
CONTINUOUS
100
AcDbLine
 10
297.0
 20
199.989334106445
 30
0.0
 11
297.0
 21
209.989334106445
 31
0.0
  0
LINE
  5
2B7
330
293
100
AcDbEntity
  8
CONTINUOUS
100
AcDbLine
 10
240.833333333333
 20
199.989334106445
 30
0.0
 11
240.833333333333
 21
204.989334106445
 31
0.0
  0
LINE
  5
2B8
330
293
100
AcDbEntity
  8
CONTINUOUS
100
AcDbLine
 10
237.958892822266
 20
193.989334106445
 30
0.0
 11
237.958892822266
 21
199.989334106445
 31
0.0
  0
LINE
  5
2B9
330
293
100
AcDbEntity
  8
CONTINUOUS
100
AcDbLine
 10
257.958892822266
 20
193.989334106445
 30
0.0
 11
257.958892822266
 21
199.989334106445
 31
0.0
  0
LINE
  5
2BA
330
293
100
AcDbEntity
  8
CONTINUOUS
100
AcDbLine
 10
272.958892822266
 20
193.989334106445
 30
0.0
 11
272.958892822266
 21
199.989334106445
 31
0.0
  0
LINE
  5
2BB
330
293
100
AcDbEntity
  8
CONTINUOUS
100
AcDbLine
 10
296.958892822266
 20
209.989334106445
 30
0.0
 11
286.958892822266
 21
209.989334106445
 31
0.0
  0
LINE
  5
2BC
330
293
100
AcDbEntity
  8
CONTINUOUS
100
AcDbLine
 10
286.942321777344
 20
152.5
 30
0.0
 11
291.942321777344
 21
152.5
 31
0.0
  0
LINE
  5
2BD
330
293
100
AcDbEntity
  8
CONTINUOUS
100
AcDbLine
 10
5.0
 20
152.5
 30
0.0
 11
10.0
 21
152.5
 31
0.0
  0
LINE
  5
2BE
330
293
100
AcDbEntity
  8
CONTINUOUS
100
AcDbLine
 10
287.0
 20
200.0
 30
0.0
 11
9.99999999999998
 21
200.0
 31
0.0
  0
LINE
  5
2BF
330
293
100
AcDbEntity
  8
CONTINUOUS
100
AcDbLine
 10
287.0
 20
10.0
 30
0.0
 11
287.0
 21
200.0
 31
0.0
  0
LINE
  5
2C0
330
293
100
AcDbEntity
  8
CONTINUOUS
100
AcDbLine
 10
9.99999999999998
 20
200.0
 30
0.0
 11
9.99999999999998
 21
9.99999999999995
 31
0.0
  0
LINE
  5
2C1
330
293
100
AcDbEntity
  8
CONTINUOUS
100
AcDbLine
 10
56.1666666666666
 20
200.0
 30
0.0
 11
56.1666666666666
 21
205.0
 31
0.0
  0
LINE
  5
2C2
330
293
100
AcDbEntity
  8
CONTINUOUS
100
AcDbLine
 10
102.333333333333
 20
200.0
 30
0.0
 11
102.333333333333
 21
205.0
 31
0.0
  0
LINE
  5
2C3
330
293
100
AcDbEntity
  8
CONTINUOUS
100
AcDbLine
 10
148.5
 20
200.0
 30
0.0
 11
148.5
 21
205.0
 31
0.0
  0
LINE
  5
2C4
330
293
100
AcDbEntity
  8
CONTINUOUS
100
AcDbLine
 10
56.1666679382324
 20
10.0
 30
0.0
 11
56.1666679382324
 21
5.0
 31
0.0
  0
LINE
  5
2C5
330
293
100
AcDbEntity
  8
CONTINUOUS
100
AcDbLine
 10
102.333335876465
 20
10.0
 30
0.0
 11
102.333335876465
 21
5.0
 31
0.0
  0
LINE
  5
2C6
330
293
100
AcDbEntity
  8
CONTINUOUS
100
AcDbLine
 10
191.942321777344
 20
30.0
 30
0.0
 11
286.942321777344
 21
30.0
 31
0.0
  0
MTEXT
  5
2C7
330
293
100
AcDbEntity
  8
CONTINUOUS
100
AcDbMText
 10
5.08690040588379
 20
33.436
 30
0.0
 40
4.298009259259259
 41
0.0
 46
0.0
 71
     4
 72
     1
  1
{\fArial|b0|i0|c0|p0;\C7;D}{\fArial|b0|i0|c0|p0;\C7;}
 73
     1
 44
1.0
  0
MTEXT
  5
2C8
330
293
100
AcDbEntity
  8
CONTINUOUS
100
AcDbMText
 10
273.283476096241
 20
196.724053344726
 30
0.0
 40
2.528240740740741
 41
0.0
 46
0.0
 71
     4
 72
     1
  1
{\fArial|b0|i0|c0|p0;\C7;Checked}{\fArial|b0|i0|c0|p0;\C7;}
 73
     1
 44
1.0
  0
MTEXT
  5
2C9
330
293
100
AcDbEntity
  8
CONTINUOUS
100
AcDbMText
 10
288.344410820089
 20
171.22635949707
 30
0.0
 40
4.298009259259259
 41
0.0
 46
0.0
 71
     4
 72
     1
  1
{\fArial|b0|i0|c0|p0;\C7;A}{\fArial|b0|i0|c0|p0;\C7;}
 73
     1
 44
1.0
  0
MTEXT
  5
2CA
330
293
100
AcDbEntity
  8
CONTINUOUS
100
AcDbMText
 10
261.832233886719
 20
6.28998626327514
 30
0.0
 40
4.298009259259259
 41
0.0
 46
0.0
 71
     4
 72
     1
  1
{\fArial|b0|i0|c0|p0;\C7;6}{\fArial|b0|i0|c0|p0;\C7;}
 73
     1
 44
1.0
  0
MTEXT
  5
2CB
330
293
100
AcDbEntity
  8
CONTINUOUS
100
AcDbMText
 10
253.679821777344
 20
16.96
 30
0.0
 40
2.528240740740741
 41
0.0
 46
0.0
 71
     4
 72
     1
  1
{\fArial|b0|i0|c0|p0;\C7;Edition}{\fArial|b0|i0|c0|p0;\C7;}
 73
     1
 44
1.0
  0
MTEXT
  5
2CC
330
293
100
AcDbEntity
  8
CONTINUOUS
100
AcDbMText
 10
77.7121860149715
 20
203.800404272846
 30
0.0
 40
4.298009259259259
 41
0.0
 46
0.0
 71
     4
 72
     1
  1
{\fArial|b0|i0|c0|p0;\C7;2}{\fArial|b0|i0|c0|p0;\C7;}
 73
     1
 44
1.0
  0
MTEXT
  5
2CD
330
293
100
AcDbEntity
  8
CONTINUOUS
100
AcDbMText
 10
4.93862550735474
 20
79.5842772827149
 30
0.0
 40
4.298009259259259
 41
0.0
 46
0.0
 71
     4
 72
     1
  1
{\fArial|b0|i0|c0|p0;\C7;C}{\fArial|b0|i0|c0|p0;\C7;}
 73
     1
 44
1.0
  0
MTEXT
  5
2CE
330
293
100
AcDbEntity
  8
CONTINUOUS
100
AcDbMText
 10
81.11409489129
 20
6.39505931157936
 30
0.0
 40
4.298009259259259
 41
0.0
 46
0.0
 71
     4
 72
     1
  1
{\fArial|b0|i0|c0|p0;\C7;2}{\fArial|b0|i0|c0|p0;\C7;}
 73
     1
 44
1.0
  0
MTEXT
  5
2CF
330
293
100
AcDbEntity
  8
CONTINUOUS
100
AcDbMText
 10
171.209843139648
 20
203.792353759765
 30
0.0
 40
4.298009259259259
 41
0.0
 46
0.0
 71
     4
 72
     1
  1
{\fArial|b0|i0|c0|p0;\C7;4}{\fArial|b0|i0|c0|p0;\C7;}
 73
     1
 44
1.0
  0
MTEXT
  5
2D0
330
293
100
AcDbEntity
  8
CONTINUOUS
100
AcDbMText
 10
5.3660912703474
 20
125.436
 30
0.0
 40
4.298009259259259
 41
0.0
 46
0.0
 71
     4
 72
     1
  1
{\fArial|b0|i0|c0|p0;\C7;B}{\fArial|b0|i0|c0|p0;\C7;}
 73
     1
 44
1.0
  0
MTEXT
  5
2D1
330
293
100
AcDbEntity
  8
CONTINUOUS
100
AcDbMText
 10
239.696392822266
 20
196.949334106445
 30
0.0
 40
2.528240740740741
 41
0.0
 46
0.0
 71
     4
 72
     1
  1
{\fArial|b0|i0|c0|p0;\C7;Date}{\fArial|b0|i0|c0|p0;\C7;}
 73
     1
 44
1.0
  0
MTEXT
  5
2D2
330
293
100
AcDbEntity
  8
CONTINUOUS
100
AcDbMText
 10
130.696392822266
 20
196.949334106445
 30
0.0
 40
2.528240740740741
 41
0.0
 46
0.0
 71
     4
 72
     1
  1
{\fArial|b0|i0|c0|p0;\C7;Revision note}{\fArial|b0|i0|c0|p0;\C7;}
 73
     1
 44
1.0
  0
MTEXT
  5
2D3
330
293
100
AcDbEntity
  8
CONTINUOUS
100
AcDbMText
 10
268.679821777344
 20
16.96
 30
0.0
 40
2.528240740740741
 41
0.0
 46
0.0
 71
     4
 72
     1
  1
{\fArial|b0|i0|c0|p0;\C7;Sheet}{\fArial|b0|i0|c0|p0;\C7;}
 73
     1
 44
1.0
  0
MTEXT
  5
2D4
330
293
100
AcDbEntity
  8
CONTINUOUS
100
AcDbMText
 10
288.460822753907
 20
79.0167495117188
 30
0.0
 40
4.298009259259259
 41
0.0
 46
0.0
 71
     4
 72
     1
  1
{\fArial|b0|i0|c0|p0;\C7;C}{\fArial|b0|i0|c0|p0;\C7;}
 73
     1
 44
1.0
  0
MTEXT
  5
2D5
330
293
100
AcDbEntity
  8
CONTINUOUS
100
AcDbMText
 10
258.115252123226
 20
196.949334106445
 30
0.0
 40
2.528240740740741
 41
0.0
 46
0.0
 71
     4
 72
     1
  1
{\fArial|b0|i0|c0|p0;\C7;Signature}{\fArial|b0|i0|c0|p0;\C7;}
 73
     1
 44
1.0
  0
MTEXT
  5
2D6
330
293
100
AcDbEntity
  8
CONTINUOUS
100
AcDbMText
 10
32.0242214965821
 20
203.802439819336
 30
0.0
 40
4.298009259259259
 41
0.0
 46
0.0
 71
     4
 72
     1
  1
{\fArial|b0|i0|c0|p0;\C7;1}{\fArial|b0|i0|c0|p0;\C7;}
 73
     1
 44
1.0
  0
MTEXT
  5
2D7
330
293
100
AcDbEntity
  8
CONTINUOUS
100
AcDbMText
 10
27.1387158203126
 20
6.3364282951355
 30
0.0
 40
4.298009259259259
 41
0.0
 46
0.0
 71
     4
 72
     1
  1
{\fArial|b0|i0|c0|p0;\C7;1}{\fArial|b0|i0|c0|p0;\C7;}
 73
     1
 44
1.0
  0
MTEXT
  5
2D8
330
293
100
AcDbEntity
  8
CONTINUOUS
100
AcDbMText
 10
120.995655822681
 20
203.905103698803
 30
0.0
 40
4.298009259259259
 41
0.0
 46
0.0
 71
     4
 72
     1
  1
{\fArial|b0|i0|c0|p0;\C7;3}{\fArial|b0|i0|c0|p0;\C7;}
 73
     1
 44
1.0
  0
MTEXT
  5
2D9
330
293
100
AcDbEntity
  8
CONTINUOUS
100
AcDbMText
 10
117.745552825928
 20
196.949334106445
 30
0.0
 40
2.528240740740741
 41
0.0
 46
0.0
 71
     4
 72
     1
  1
{\fArial|b0|i0|c0|p0;\C7;RevNo}{\fArial|b0|i0|c0|p0;\C7;}
 73
     1
 44
1.0
  0
MTEXT
  5
2DA
330
293
100
AcDbEntity
  8
CONTINUOUS
100
AcDbMText
 10
4.734780712209
 20
171.584376464844
 30
0.0
 40
4.298009259259259
 41
0.0
 46
0.0
 71
     4
 72
     1
  1
{\fArial|b0|i0|c0|p0;\C7;A}{\fArial|b0|i0|c0|p0;\C7;}
 73
     1
 44
1.0
  0
MTEXT
  5
2DB
330
293
100
AcDbEntity
  8
CONTINUOUS
100
AcDbMText
 10
288.775805015464
 20
125.436
 30
0.0
 40
4.298009259259259
 41
0.0
 46
0.0
 71
     4
 72
     1
  1
{\fArial|b0|i0|c0|p0;\C7;B}{\fArial|b0|i0|c0|p0;\C7;}
 73
     1
 44
1.0
  0
MTEXT
  5
2DC
330
293
100
AcDbEntity
  8
CONTINUOUS
100
AcDbMText
 10
288.670463256836
 20
33.0167418823242
 30
0.0
 40
4.298009259259259
 41
0.0
 46
0.0
 71
     4
 72
     1
  1
{\fArial|b0|i0|c0|p0;\C7;D}{\fArial|b0|i0|c0|p0;\C7;}
 73
     1
 44
1.0
  0
MTEXT
  5
2DD
330
293
100
AcDbEntity
  8
CONTINUOUS
100
AcDbMText
 10
264.921810609717
 20
203.790896547217
 30
0.0
 40
4.298009259259259
 41
0.0
 46
0.0
 71
     4
 72
     1
  1
{\fArial|b0|i0|c0|p0;\C7;6}{\fArial|b0|i0|c0|p0;\C7;}
 73
     1
 44
1.0
  0
MTEXT
  5
2DE
330
293
100
AcDbEntity
  8
CONTINUOUS
100
AcDbMText
 10
125.842175294703
 20
6.16010619923708
 30
0.0
 40
4.298009259259259
 41
0.0
 46
0.0
 71
     4
 72
     1
  1
{\fArial|b0|i0|c0|p0;\C7;3}{\fArial|b0|i0|c0|p0;\C7;}
 73
     1
 44
1.0
  0
MTEXT
  5
2DF
330
293
100
AcDbEntity
  8
CONTINUOUS
100
AcDbMText
 10
216.608890991211
 20
203.84698022461
 30
0.0
 40
4.298009259259259
 41
0.0
 46
0.0
 71
     4
 72
     1
  1
{\fArial|b0|i0|c0|p0;\C7;5}{\fArial|b0|i0|c0|p0;\C7;}
 73
     1
 44
1.0
  0
ENDBLK
  5
295
330
293
100
AcDbEntity
  8
0
100
AcDbBlockEnd
  0
ENDSEC
  0
SECTION
  2
ENTITIES
  0
LINE
  5
5E
330
1F
100
AcDbEntity
  8
VISIBLE
  6
Continuous
 62
     7
100
AcDbLine
 10
131.2486946646264
 20
73.55554113053569
 30
0.0
 11
131.2486946646264
 21
96.21579516833569
 31
0.0
  0
ARC
  5
5F
330
1F
100
AcDbEntity
  8
VISIBLE
  6
Continuous
 62
     7
100
AcDbCircle
 10
110.8360363300564
 20
104.4305375818257
 30
0.0
 40
4.200001788909994
100
AcDbArc
 50
0.0000484105476591
 51
179.9999515879516
  0
LINE
  5
60
330
1F
100
AcDbEntity
  8
VISIBLE
  6
Continuous
 62
     7
100
AcDbLine
 10
94.30383093592643
 20
137.5459221873357
 30
0.0
 11
82.00960230191399
 21
134.2516935532821
 31
0.0
  0
LINE
  5
61
330
1F
100
AcDbEntity
  8
VISIBLE
  6
Continuous
 62
     7
100
AcDbLine
 10
131.2486946646264
 20
96.21579516833569
 30
0.0
 11
113.9281865889308
 21
126.2157951683324
 31
0.0
  0
ARC
  5
62
330
1F
100
AcDbEntity
  8
VISIBLE
  6
Continuous
 62
     7
100
AcDbCircle
 10
105.8563899969264
 20
113.5555420755857
 30
0.0
 40
1.700000724079991
100
AcDbArc
 50
180.0000318503734
 51
359.9999681482784
  0
ARC
  5
63
330
1F
100
AcDbEntity
  8
VISIBLE
  6
Continuous
 62
     7
100
AcDbCircle
 10
105.8563899969264
 20
113.5555396941557
 30
0.0
 40
1.700000724079995
100
AcDbArc
 50
0.0000484105315915
 51
179.9999515881201
  0
LINE
  5
64
330
1F
100
AcDbEntity
  8
VISIBLE
  6
Continuous
 62
     7
100
AcDbLine
 10
96.91856764572643
 20
101.3952870926957
 30
0.0
 11
101.2486946646274
 21
93.89528709273625
 31
0.0
  0
ARC
  5
65
330
1F
100
AcDbEntity
  8
VISIBLE
  6
Continuous
 62
     7
100
AcDbCircle
 10
116.2486938316381
 20
95.55554157073568
 30
0.0
 40
1.700000501579998
100
AcDbArc
 50
270.0000280745406
 51
89.99997192618697
  0
LINE
  5
66
330
1F
100
AcDbEntity
  8
VISIBLE
  6
Continuous
 62
     7
100
AcDbLine
 10
101.2486946646264
 20
73.55554113053569
 30
0.0
 11
110.2486946646264
 21
64.55554113053569
 31
0.0
  0
LINE
  5
67
330
1F
100
AcDbEntity
  8
VISIBLE
  6
Continuous
 62
     7
100
AcDbLine
 10
79.30383093592643
 20
111.5651600737657
 30
0.0
 11
96.918567645708
 21
101.3952870926638
 31
0.0
  0
LINE
  5
68
330
1F
100
AcDbEntity
  8
VISIBLE
  6
Continuous
 62
     7
100
AcDbLine
 10
122.2486946646264
 20
64.55554113053569
 30
0.0
 11
131.2486946646264
 21
73.55554113053569
 31
0.0
  0
LINE
  5
69
330
1F
100
AcDbEntity
  8
VISIBLE
  6
Continuous
 62
     7
100
AcDbLine
 10
82.00960230192644
 20
134.2516935532357
 30
0.0
 11
76.0096023019299
 21
123.8593887078337
 31
0.0
  0
LINE
  5
6A
330
1F
100
AcDbEntity
  8
VISIBLE
  6
Continuous
 62
     7
100
AcDbLine
 10
101.2486946646264
 20
93.89528709273569
 30
0.0
 11
101.2486946646264
 21
73.55554113053569
 31
0.0
  0
ARC
  5
6B
330
1F
100
AcDbEntity
  8
VISIBLE
  6
Continuous
 62
     7
100
AcDbCircle
 10
116.2486937555506
 20
73.55553146523569
 30
0.0
 40
4.200000909090002
100
AcDbArc
 50
179.9998681488553
 51
0.0001318525661383
  0
ARC
  5
6C
330
1F
100
AcDbEntity
  8
VISIBLE
  6
Continuous
 62
     7
100
AcDbCircle
 10
116.2486937555506
 20
73.55553906473568
 30
0.0
 40
4.20000090908
100
AcDbArc
 50
0.0000281813323631
 51
179.999971820044
  0
ARC
  5
6D
330
1F
100
AcDbEntity
  8
VISIBLE
  6
Continuous
 62
     7
100
AcDbCircle
 10
110.8360363300564
 20
104.4305434653557
 30
0.0
 40
4.200001788909996
100
AcDbArc
 50
180.0000318501646
 51
359.9999681483349
  0
ARC
  5
6E
330
1F
100
AcDbEntity
  8
VISIBLE
  6
Continuous
 62
     7
100
AcDbCircle
 10
116.2486933084333
 20
95.55554157073568
 30
0.0
 40
1.700000501579994
100
AcDbArc
 50
89.9999542924125
 51
270.000045708315
  0
LINE
  5
6F
330
1F
100
AcDbEntity
  8
VISIBLE
  6
Continuous
 62
     7
100
AcDbLine
 10
76.00960230192644
 20
123.8593887078357
 30
0.0
 11
79.30383093599079
 21
111.5651600737829
 31
0.0
  0
LINE
  5
70
330
1F
100
AcDbEntity
  8
VISIBLE
  6
Continuous
 62
     7
100
AcDbLine
 10
110.2486946646264
 20
64.55554113053569
 30
0.0
 11
122.2486946646264
 21
64.5555411305357
 31
0.0
  0
ARC
  5
71
330
1F
100
AcDbEntity
  8
VISIBLE
  6
Continuous
 62
     7
100
AcDbCircle
 10
86.80383202352643
 20
124.5555444748357
 30
0.0
 40
4.200001239200001
100
AcDbArc
 50
359.9999543789311
 51
180.000045622433
  0
ARC
  5
72
330
1F
100
AcDbEntity
  8
VISIBLE
  6
Continuous
 62
     7
100
AcDbCircle
 10
86.80383202352643
 20
124.5555431953357
 30
0.0
 40
4.200001239200001
100
AcDbArc
 50
180.0000281676882
 51
359.9999718336758
  0
LINE
  5
73
330
1F
100
AcDbEntity
  8
VISIBLE
  6
Continuous
 62
     7
100
AcDbLine
 10
113.9281865889364
 20
126.2157951683357
 30
0.0
 11
94.30383093590218
 21
137.5459221872937
 31
0.0
  0
LINE
  5
74
330
1F
100
AcDbEntity
  8
VISIBLE
  6
Continuous
 62
     7
100
AcDbLine
 10
79.30383093592643
 20
165.9731369018554
 30
0.0
 11
76.00960230186207
 21
165.9731369018554
 31
0.0
  0
LINE
  5
75
330
1F
100
AcDbEntity
  8
VISIBLE
  6
Continuous
 62
     7
100
AcDbLine
 10
87.07967630892642
 20
178.8907020577554
 30
0.0
 11
89.69613578132393
 21
182.0192743682598
 31
0.0
  0
LINE
  5
76
330
1F
100
AcDbEntity
  8
VISIBLE
  6
Continuous
 62
     7
100
AcDbLine
 10
122.2486946646264
 20
165.9731369018554
 30
0.0
 11
110.2486946646264
 21
165.9731369018554
 31
0.0
  0
LINE
  5
77
330
1F
100
AcDbEntity
  8
VISIBLE
  6
Continuous
 62
     7
100
AcDbLine
 10
96.91856764572643
 20
185.9731369018554
 30
0.0
 11
101.2486946646274
 21
185.9731369018554
 31
0.0
  0
ELLIPSE
  5
78
330
1F
100
AcDbEntity
  8
VISIBLE
  6
Continuous
 62
     7
100
AcDbEllipse
 10
89.69613578132643
 20
175.9731338596554
 30
0.0
 11
0.0
 21
4.200002113289997
 31
0.0
210
0.0
220
0.0
230
1.0
 40
0.8660254037843307
 41
3.141592653589793
 42
5.480334372298394
  0
ELLIPSE
  5
79
330
1F
100
AcDbEntity
  8
VISIBLE
  6
Continuous
 62
     7
100
AcDbEllipse
 10
89.69613578132643
 20
175.9731338596554
 30
0.0
 11
0.0
 21
4.200002113289997
 31
0.0
210
0.0
220
0.0
230
1.0
 40
0.8660254037843307
 41
0.8028509348816043
 42
3.141592653589793
  0
LINE
  5
7A
330
1F
100
AcDbEntity
  8
VISIBLE
  6
Continuous
 62
     7
100
AcDbLine
 10
79.30383093592643
 20
185.9731369018554
 30
0.0
 11
79.30383093592643
 21
165.9731369018554
 31
0.0
  0
LINE
  5
7B
330
1F
100
AcDbEntity
  8
VISIBLE
  6
Continuous
 62
     7
100
AcDbLine
 10
79.30383093592643
 20
165.9731369018554
 30
0.0
 11
96.918567645708
 21
165.9731369018554
 31
0.0
  0
LINE
  5
7C
330
1F
100
AcDbEntity
  8
VISIBLE
  6
Continuous
 62
     7
100
AcDbLine
 10
131.2486946646264
 20
165.9731369018554
 30
0.0
 11
122.2486946646264
 21
165.9731369018554
 31
0.0
  0
LINE
  5
7D
330
1F
100
AcDbEntity
  8
VISIBLE
  6
Continuous
 62
     7
100
AcDbLine
 10
101.2486946646264
 20
185.9731369018554
 30
0.0
 11
110.2486946646264
 21
185.9731369018554
 31
0.0
  0
LINE
  5
7E
330
1F
100
AcDbEntity
  8
VISIBLE
  6
Continuous
 62
     7
100
AcDbLine
 10
79.30383093592643
 20
185.9731369018554
 30
0.0
 11
96.918567645708
 21
185.9731369018554
 31
0.0
  0
LINE
  5
7F
330
1F
100
AcDbEntity
  8
VISIBLE
  6
Continuous
 62
     7
100
AcDbLine
 10
122.2486946646264
 20
185.9731369018554
 30
0.0
 11
131.2486946646264
 21
185.9731369018554
 31
0.0
  0
LINE
  5
80
330
1F
100
AcDbEntity
  8
VISIBLE
  6
Continuous
 62
     7
100
AcDbLine
 10
110.2486946646264
 20
165.9731369018554
 30
0.0
 11
101.2486946646264
 21
165.9731369018554
 31
0.0
  0
LINE
  5
81
330
1F
100
AcDbEntity
  8
VISIBLE
  6
Continuous
 62
     7
100
AcDbLine
 10
101.2486946646264
 20
165.9731369018554
 30
0.0
 11
101.2486946646264
 21
185.9731369018554
 31
0.0
  0
LINE
  5
82
330
1F
100
AcDbEntity
  8
VISIBLE
  6
Continuous
 62
     7
100
AcDbLine
 10
76.00960230192644
 20
185.9731369018554
 30
0.0
 11
79.30383093599079
 21
185.9731369018554
 31
0.0
  0
LINE
  5
83
330
1F
100
AcDbEntity
  8
VISIBLE
  6
Continuous
 62
     7
100
AcDbLine
 10
110.2486946646264
 20
185.9731369018554
 30
0.0
 11
122.2486946646264
 21
185.9731369018554
 31
0.0
  0
LINE
  5
84
330
1F
100
AcDbEntity
  8
VISIBLE
  6
Continuous
 62
     7
100
AcDbLine
 10
131.2486946646264
 20
185.9731369018554
 30
0.0
 11
131.2486946646264
 21
165.9731369018554
 31
0.0
  0
LINE
  5
85
330
1F
100
AcDbEntity
  8
VISIBLE
  6
Continuous
 62
     7
100
AcDbLine
 10
110.2486946646264
 20
185.9731369018554
 30
0.0
 11
110.2486946646264
 21
165.9731369018554
 31
0.0
  0
LINE
  5
86
330
1F
100
AcDbEntity
  8
VISIBLE
  6
Continuous
 62
     7
100
AcDbLine
 10
89.69613578132643
 20
182.0192743682554
 30
0.0
 11
92.31259525372289
 21
178.8907020577522
 31
0.0
  0
LINE
  5
87
330
1F
100
AcDbEntity
  8
VISIBLE
  6
Continuous
 62
     7
100
AcDbLine
 10
96.91856764572643
 20
165.9731369018554
 30
0.0
 11
96.91856764572643
 21
185.9731369018554
 31
0.0
  0
LINE
  5
88
330
1F
100
AcDbEntity
  8
VISIBLE
  6
Continuous
 62
     7
100
AcDbLine
 10
101.2486946646264
 20
165.9731369018554
 30
0.0
 11
96.91856764572546
 21
165.9731369018554
 31
0.0
  0
LINE
  5
89
330
1F
100
AcDbEntity
  8
VISIBLE
  6
Continuous
 62
     7
100
AcDbLine
 10
122.2486946646264
 20
165.9731369018554
 30
0.0
 11
122.2486946646264
 21
185.9731369018554
 31
0.0
  0
LINE
  5
8A
330
1F
100
AcDbEntity
  8
VISIBLE
  6
Continuous
 62
     7
100
AcDbLine
 10
76.00960230192644
 20
165.9731369018554
 30
0.0
 11
76.00960230192644
 21
185.9731369018554
 31
0.0
  0
LINE
  5
8C
330
1F
100
AcDbEntity
  8
TANGENT EDGES
  6
Continuous
 62
     7
100
AcDbLine
 10
87.07967630892642
 20
178.8907020577554
 30
0.0
 11
92.3125952537309
 21
178.8907020577554
 31
0.0
  0
ELLIPSE
  5
8D
330
1F
100
AcDbEntity
  8
VISIBLE
  6
Continuous
 62
     7
100
AcDbEllipse
 10
104.6961357813264
 20
28.34524649617951
 30
0.0
 11
-1.421085471520200E-14
 21
-4.200002113289997
 31
0.0
210
0.0
220
0.0
230
1.0
 40
0.8660254037843272
 41
-3.141592653589793
 42
-0.8028509348803752
  0
ELLIPSE
  5
8E
330
1F
100
AcDbEntity
  8
VISIBLE
  6
Continuous
 62
     7
100
AcDbEllipse
 10
104.6961357813264
 20
28.34524649617951
 30
0.0
 11
-1.421085471520200E-14
 21
-4.200002113289997
 31
0.0
210
0.0
220
0.0
230
1.0
 40
0.8660254037843272
 41
0.802850934886094
 42
3.141592653589793
  0
LINE
  5
8F
330
1F
100
AcDbEntity
  8
VISIBLE
  6
Continuous
 62
     7
100
AcDbLine
 10
82.00960230192644
 20
38.34524345397951
 30
0.0
 11
94.30383093593888
 21
38.34524345397951
 31
0.0
  0
LINE
  5
90
330
1F
100
AcDbEntity
  8
VISIBLE
  6
Continuous
 62
     7
100
AcDbLine
 10
113.9281865889364
 20
38.34524345397951
 30
0.0
 11
131.2486946646321
 21
38.34524345397951
 31
0.0
  0
LINE
  5
91
330
1F
100
AcDbEntity
  8
VISIBLE
  6
Continuous
 62
     7
100
AcDbLine
 10
94.30383093592643
 20
18.34524345397951
 30
0.0
 11
82.00960230191399
 21
18.34524345397951
 31
0.0
  0
LINE
  5
92
330
1F
100
AcDbEntity
  8
VISIBLE
  6
Continuous
 62
     7
100
AcDbLine
 10
131.2486946646264
 20
18.34524345397951
 30
0.0
 11
113.9281865889308
 21
18.34524345397951
 31
0.0
  0
LINE
  5
93
330
1F
100
AcDbEntity
  8
VISIBLE
  6
Continuous
 62
     7
100
AcDbLine
 10
94.30383093592643
 20
38.34524345397951
 30
0.0
 11
113.9281865889607
 21
38.34524345397951
 31
0.0
  0
LINE
  5
94
330
1F
100
AcDbEntity
  8
VISIBLE
  6
Continuous
 62
     7
100
AcDbLine
 10
113.9281865889364
 20
18.34524345397951
 30
0.0
 11
113.9281865889364
 21
38.34524345397951
 31
0.0
  0
LINE
  5
95
330
1F
100
AcDbEntity
  8
VISIBLE
  6
Continuous
 62
     7
100
AcDbLine
 10
82.00960230192644
 20
18.34524345397951
 30
0.0
 11
76.0096023019299
 21
18.3452434539795
 31
0.0
  0
LINE
  5
96
330
1F
100
AcDbEntity
  8
VISIBLE
  6
Continuous
 62
     7
100
AcDbLine
 10
104.6961357813264
 20
22.29910598757951
 30
0.0
 11
102.0796763089321
 21
25.42767829808015
 31
0.0
  0
LINE
  5
97
330
1F
100
AcDbEntity
  8
VISIBLE
  6
Continuous
 62
     7
100
AcDbLine
 10
107.3125952537664
 20
25.42767829807951
 30
0.0
 11
104.6961357813576
 21
22.29910598756156
 31
0.0
  0
LINE
  5
98
330
1F
100
AcDbEntity
  8
VISIBLE
  6
Continuous
 62
     7
100
AcDbLine
 10
131.2486946646264
 20
38.34524345397951
 30
0.0
 11
131.2486946646264
 21
18.34524345397951
 31
0.0
  0
LINE
  5
99
330
1F
100
AcDbEntity
  8
VISIBLE
  6
Continuous
 62
     7
100
AcDbLine
 10
113.9281865889364
 20
18.34524345397951
 30
0.0
 11
94.30383093590218
 21
18.34524345397951
 31
0.0
  0
LINE
  5
9A
330
1F
100
AcDbEntity
  8
VISIBLE
  6
Continuous
 62
     7
100
AcDbLine
 10
82.00960230192644
 20
18.34524345397951
 30
0.0
 11
82.00960230192642
 21
38.34524345397951
 31
0.0
  0
LINE
  5
9B
330
1F
100
AcDbEntity
  8
VISIBLE
  6
Continuous
 62
     7
100
AcDbLine
 10
76.00960230192644
 20
38.34524345397951
 30
0.0
 11
76.00960230192644
 21
18.34524345397951
 31
0.0
  0
LINE
  5
9C
330
1F
100
AcDbEntity
  8
VISIBLE
  6
Continuous
 62
     7
100
AcDbLine
 10
94.30383093592643
 20
38.34524345397951
 30
0.0
 11
94.30383093592643
 21
18.34524345397951
 31
0.0
  0
LINE
  5
9D
330
1F
100
AcDbEntity
  8
VISIBLE
  6
Continuous
 62
     7
100
AcDbLine
 10
76.00960230192644
 20
38.34524345397951
 30
0.0
 11
82.00960230192297
 21
38.34524345397951
 31
0.0
  0
LINE
  5
9E
330
1F
100
AcDbEntity
  8
TANGENT EDGES
  6
Continuous
 62
     7
100
AcDbLine
 10
107.3125952537664
 20
25.42767829807951
 30
0.0
 11
102.079676308922
 21
25.42767829807951
 31
0.0
  0
LINE
  5
9F
330
1F
100
AcDbEntity
  8
VISIBLE
  6
Continuous
 62
     7
100
AcDbLine
 10
166.0824813842777
 20
134.2516935532357
 30
0.0
 11
166.0824813842777
 21
137.5459221872892
 31
0.0
  0
LINE
  5
A0
330
1F
100
AcDbEntity
  8
VISIBLE
  6
Continuous
 62
     7
100
AcDbLine
 10
166.0824813842777
 20
111.5651600737657
 30
0.0
 11
166.0824813842777
 21
123.8593887078184
 31
0.0
  0
LINE
  5
A1
330
1F
100
AcDbEntity
  8
VISIBLE
  6
Continuous
 62
     7
100
AcDbLine
 10
186.0824813842777
 20
137.5459221873357
 30
0.0
 11
186.0824813842777
 21
134.2516935532821
 31
0.0
  0
LINE
  5
A2
330
1F
100
AcDbEntity
  8
VISIBLE
  6
Continuous
 62
     7
100
AcDbLine
 10
179.0000465401777
 20
107.0757736544807
 30
0.0
 11
182.1286188506821
 21
105.5651600737704
 31
0.0
  0
LINE
  5
A3
330
1F
100
AcDbEntity
  8
VISIBLE
  6
Continuous
 62
     7
100
AcDbLine
 10
166.0824813842777
 20
73.55554113053569
 30
0.0
 11
166.0824813842777
 21
93.89528709273569
 31
0.0
  0
LINE
  5
A4
330
1F
100
AcDbEntity
  8
VISIBLE
  6
Continuous
 62
     7
100
AcDbLine
 10
186.0824813842777
 20
101.3952870926957
 30
0.0
 11
186.0824813842777
 21
93.89528709273625
 31
0.0
  0
ELLIPSE
  5
A5
330
1F
100
AcDbEntity
  8
VISIBLE
  6
Continuous
 62
     7
100
AcDbEllipse
 10
176.0824783420777
 20
105.5651600737657
 30
0.0
 11
4.200002113289997
 21
0.0
 31
0.0
210
0.0
220
0.0
230
1.0
 40
0.5000000000001928
 41
3.141592653589793
 42
5.480334372298399
  0
ELLIPSE
  5
A6
330
1F
100
AcDbEntity
  8
VISIBLE
  6
Continuous
 62
     7
100
AcDbEllipse
 10
176.0824783420777
 20
105.5651600737657
 30
0.0
 11
4.200002113289997
 21
0.0
 31
0.0
210
0.0
220
0.0
230
1.0
 40
0.5000000000001928
 41
0.8028509348816029
 42
3.141592653589793
  0
LINE
  5
A7
330
1F
100
AcDbEntity
  8
VISIBLE
  6
Continuous
 62
     7
100
AcDbLine
 10
186.0824813842777
 20
111.5651600737657
 30
0.0
 11
166.0824813842777
 21
111.5651600737657
 31
0.0
  0
LINE
  5
A8
330
1F
100
AcDbEntity
  8
VISIBLE
  6
Continuous
 62
     7
100
AcDbLine
 10
166.0824813842777
 20
111.5651600737657
 30
0.0
 11
166.0824813842777
 21
101.3952870926638
 31
0.0
  0
LINE
  5
A9
330
1F
100
AcDbEntity
  8
VISIBLE
  6
Continuous
 62
     7
100
AcDbLine
 10
186.0824813842777
 20
73.55554113053569
 30
0.0
 11
186.0824813842777
 21
64.55554113053569
 31
0.0
  0
LINE
  5
AA
330
1F
100
AcDbEntity
  8
VISIBLE
  6
Continuous
 62
     7
100
AcDbLine
 10
186.0824813842777
 20
111.5651600737657
 30
0.0
 11
186.0824813842777
 21
101.3952870926638
 31
0.0
  0
LINE
  5
AB
330
1F
100
AcDbEntity
  8
VISIBLE
  6
Continuous
 62
     7
100
AcDbLine
 10
186.0824813842777
 20
134.2516935532357
 30
0.0
 11
186.0824813842777
 21
123.8593887078337
 31
0.0
  0
ARC
  5
AC
330
1F
100
AcDbEntity
  8
VISIBLE
  6
Continuous
 62
     7
100
AcDbCircle
 10
176.0824783420777
 20
85.55554113053569
 30
0.0
 40
4.200002113290014
100
AcDbArc
 50
45.99997014658016
 51
314.0000298534198
  0
LINE
  5
AD
330
1F
100
AcDbEntity
  8
VISIBLE
  6
Continuous
 62
     7
100
AcDbLine
 10
186.0824813842777
 20
93.89528709273569
 30
0.0
 11
186.0824813842777
 21
73.55554113053569
 31
0.0
  0
LINE
  5
AE
330
1F
100
AcDbEntity
  8
VISIBLE
  6
Continuous
 62
     7
100
AcDbLine
 10
186.0824813842777
 20
93.89528709273569
 30
0.0
 11
166.0824813842777
 21
93.89528709273569
 31
0.0
  0
LINE
  5
AF
330
1F
100
AcDbEntity
  8
VISIBLE
  6
Continuous
 62
     7
100
AcDbLine
 10
166.0824813842777
 20
64.55554113053569
 30
0.0
 11
166.0824813842777
 21
73.55554113053569
 31
0.0
  0
LINE
  5
B0
330
1F
100
AcDbEntity
  8
VISIBLE
  6
Continuous
 62
     7
100
AcDbLine
 10
179.0000465401777
 20
88.57676829193568
 30
0.0
 11
182.1286188506674
 21
85.55554113052501
 31
0.0
  0
LINE
  5
B1
330
1F
100
AcDbEntity
  8
VISIBLE
  6
Continuous
 62
     7
100
AcDbLine
 10
166.0824813842777
 20
73.55554113053569
 30
0.0
 11
186.0824813842777
 21
73.55554113053569
 31
0.0
  0
LINE
  5
B2
330
1F
100
AcDbEntity
  8
VISIBLE
  6
Continuous
 62
     7
100
AcDbLine
 10
186.0824813842777
 20
123.8593887078357
 30
0.0
 11
186.0824813842777
 21
111.5651600737829
 31
0.0
  0
LINE
  5
B3
330
1F
100
AcDbEntity
  8
VISIBLE
  6
Continuous
 62
     7
100
AcDbLine
 10
182.1286188506777
 20
85.55554113053569
 30
0.0
 11
179.000046540188
 21
82.53431396912501
 31
0.0
  0
LINE
  5
B4
330
1F
100
AcDbEntity
  8
VISIBLE
  6
Continuous
 62
     7
100
AcDbLine
 10
186.0824813842777
 20
64.55554113053569
 30
0.0
 11
166.0824813842777
 21
64.55554113053569
 31
0.0
  0
LINE
  5
B5
330
1F
100
AcDbEntity
  8
VISIBLE
  6
Continuous
 62
     7
100
AcDbLine
 10
182.1286188506777
 20
105.5651600737657
 30
0.0
 11
179.0000465401745
 21
104.054546493056
 31
0.0
  0
LINE
  5
B6
330
1F
100
AcDbEntity
  8
VISIBLE
  6
Continuous
 62
     7
100
AcDbLine
 10
166.0824813842777
 20
101.3952870926957
 30
0.0
 11
186.0824813842777
 21
101.3952870926957
 31
0.0
  0
LINE
  5
B7
330
1F
100
AcDbEntity
  8
VISIBLE
  6
Continuous
 62
     7
100
AcDbLine
 10
166.0824813842777
 20
93.89528709273569
 30
0.0
 11
166.0824813842777
 21
101.3952870926951
 31
0.0
  0
LINE
  5
B8
330
1F
100
AcDbEntity
  8
VISIBLE
  6
Continuous
 62
     7
100
AcDbLine
 10
186.0824813842777
 20
134.2516935532357
 30
0.0
 11
166.0824813842777
 21
134.2516935532357
 31
0.0
  0
LINE
  5
B9
330
1F
100
AcDbEntity
  8
VISIBLE
  6
Continuous
 62
     7
100
AcDbLine
 10
166.0824813842777
 20
123.8593887078357
 30
0.0
 11
186.0824813842777
 21
123.8593887078357
 31
0.0
  0
LINE
  5
BA
330
1F
100
AcDbEntity
  8
VISIBLE
  6
Continuous
 62
     7
100
AcDbLine
 10
166.0824813842777
 20
137.5459221873357
 30
0.0
 11
186.0824813842777
 21
137.5459221873357
 31
0.0
  0
LINE
  5
BB
330
1F
100
AcDbEntity
  8
VISIBLE
  6
Continuous
 62
     7
100
AcDbLine
 10
166.0824813842777
 20
123.8593887078357
 30
0.0
 11
166.0824813842777
 21
134.2516935532377
 31
0.0
  0
LINE
  5
BC
330
1F
100
AcDbEntity
  8
TANGENT EDGES
  6
Continuous
 62
     7
100
AcDbLine
 10
179.0000465401777
 20
107.0757736544832
 30
0.0
 11
179.0000465401777
 21
104.0545464930534
 31
0.0
  0
ELLIPSE
  5
BD
330
1F
100
AcDbEntity
  8
VISIBLE
  6
Continuous
 62
     7
100
AcDbEllipse
 10
31.39314455030242
 20
131.5459221873357
 30
0.0
 11
-4.200002113289997
 21
0.0
 31
0.0
210
0.0
220
0.0
230
1.0
 40
0.5000000000001895
 41
-3.141592653589793
 42
-0.8028509348803707
  0
ELLIPSE
  5
BE
330
1F
100
AcDbEntity
  8
VISIBLE
  6
Continuous
 62
     7
100
AcDbEllipse
 10
31.39314455030242
 20
131.5459221873357
 30
0.0
 11
-4.200002113289997
 21
0.0
 31
0.0
210
0.0
220
0.0
230
1.0
 40
0.5000000000001895
 41
0.8028509348860997
 42
3.141592653589793
  0
LINE
  5
BF
330
1F
100
AcDbEntity
  8
VISIBLE
  6
Continuous
 62
     7
100
AcDbLine
 10
21.39314150810242
 20
73.55554113053569
 30
0.0
 11
21.39314150810242
 21
96.21579516833569
 31
0.0
  0
LINE
  5
C0
330
1F
100
AcDbEntity
  8
VISIBLE
  6
Continuous
 62
     7
100
AcDbLine
 10
41.39314150810242
 20
126.2157951683357
 30
0.0
 11
41.39314150810242
 21
96.21579516833896
 31
0.0
  0
LINE
  5
C1
330
1F
100
AcDbEntity
  8
VISIBLE
  6
Continuous
 62
     7
100
AcDbLine
 10
25.34700404170242
 20
85.55554113053569
 30
0.0
 11
28.47557635219211
 21
88.57676829194637
 31
0.0
  0
LINE
  5
C2
330
1F
100
AcDbEntity
  8
VISIBLE
  6
Continuous
 62
     7
100
AcDbLine
 10
21.39314150810242
 20
96.21579516833569
 30
0.0
 11
21.39314150810242
 21
126.2157951683324
 31
0.0
  0
LINE
  5
C3
330
1F
100
AcDbEntity
  8
VISIBLE
  6
Continuous
 62
     7
100
AcDbLine
 10
41.39314150810242
 20
137.5459221873357
 30
0.0
 11
41.39314150810242
 21
126.2157951683777
 31
0.0
  0
LINE
  5
C4
330
1F
100
AcDbEntity
  8
VISIBLE
  6
Continuous
 62
     7
100
AcDbLine
 10
21.39314150810242
 20
126.2157951683357
 30
0.0
 11
41.39314150810242
 21
126.2157951683357
 31
0.0
  0
LINE
  5
C5
330
1F
100
AcDbEntity
  8
VISIBLE
  6
Continuous
 62
     7
100
AcDbLine
 10
41.39314150810242
 20
96.21579516833569
 30
0.0
 11
41.39314150810242
 21
73.55554113053569
 31
0.0
  0
LINE
  5
C6
330
1F
100
AcDbEntity
  8
VISIBLE
  6
Continuous
 62
     7
100
AcDbLine
 10
41.39314150810242
 20
73.55554113053569
 30
0.0
 11
41.39314150810242
 21
64.55554113053569
 31
0.0
  0
LINE
  5
C7
330
1F
100
AcDbEntity
  8
VISIBLE
  6
Continuous
 62
     7
100
AcDbLine
 10
28.47557635220242
 20
82.5343139691357
 30
0.0
 11
25.34700404171273
 21
85.55554113054636
 31
0.0
  0
LINE
  5
C8
330
1F
100
AcDbEntity
  8
VISIBLE
  6
Continuous
 62
     7
100
AcDbLine
 10
21.39314150810242
 20
64.55554113053569
 30
0.0
 11
21.39314150810242
 21
73.55554113053569
 31
0.0
  0
ARC
  5
C9
330
1F
100
AcDbEntity
  8
VISIBLE
  6
Continuous
 62
     7
100
AcDbCircle
 10
31.39314455030242
 20
85.55554113053569
 30
0.0
 40
4.200002113290004
100
AcDbArc
 50
225.9999701465803
 51
134.0000298534197
  0
LINE
  5
CA
330
1F
100
AcDbEntity
  8
VISIBLE
  6
Continuous
 62
     7
100
AcDbLine
 10
25.34700404170242
 20
131.5459221873357
 30
0.0
 11
28.47557635220305
 21
133.0565357680441
 31
0.0
  0
LINE
  5
CB
330
1F
100
AcDbEntity
  8
VISIBLE
  6
Continuous
 62
     7
100
AcDbLine
 10
21.39314150810242
 20
73.55554113053569
 30
0.0
 11
41.39314150810242
 21
73.55554113053569
 31
0.0
  0
LINE
  5
CC
330
1F
100
AcDbEntity
  8
VISIBLE
  6
Continuous
 62
     7
100
AcDbLine
 10
28.47557635220242
 20
130.0353086066357
 30
0.0
 11
25.34700404168447
 21
131.5459221873525
 31
0.0
  0
LINE
  5
CD
330
1F
100
AcDbEntity
  8
VISIBLE
  6
Continuous
 62
     7
100
AcDbLine
 10
41.39314150810242
 20
96.21579516833569
 30
0.0
 11
21.39314150810242
 21
96.21579516833569
 31
0.0
  0
LINE
  5
CE
330
1F
100
AcDbEntity
  8
VISIBLE
  6
Continuous
 62
     7
100
AcDbLine
 10
21.39314150810242
 20
126.2157951683357
 30
0.0
 11
21.39314150810242
 21
137.5459221872937
 31
0.0
  0
LINE
  5
CF
330
1F
100
AcDbEntity
  8
VISIBLE
  6
Continuous
 62
     7
100
AcDbLine
 10
41.39314150810242
 20
64.55554113053569
 30
0.0
 11
21.39314150810242
 21
64.55554113053569
 31
0.0
  0
LINE
  5
D0
330
1F
100
AcDbEntity
  8
VISIBLE
  6
Continuous
 62
     7
100
AcDbLine
 10
41.39314150810242
 20
137.5459221873357
 30
0.0
 11
21.39314150810242
 21
137.5459221873357
 31
0.0
  0
LINE
  5
D1
330
1F
100
AcDbEntity
  8
TANGENT EDGES
  6
Continuous
 62
     7
100
AcDbLine
 10
28.47557635220242
 20
130.0353086066294
 30
0.0
 11
28.47557635220242
 21
133.0565357680269
 31
0.0
  0
ELLIPSE
  5
D2
330
1F
100
AcDbEntity
  8
VISIBLE
  6
Continuous
 62
     7
100
AcDbEllipse
 10
248.1949515689162
 20
125.9194083797918
 30
0.0
 11
-3.436065754185677
 21
2.415257726320903
 31
0.0
210
0.0
220
0.0
230
1.0
 40
0.7886751345948614
 41
0.000000680209569
 42
0.4170659810425342
  0
ELLIPSE
  5
D3
330
1F
100
AcDbEntity
  8
VISIBLE
  6
Continuous
 62
     7
100
AcDbEllipse
 10
248.1949515689162
 20
125.9194083797918
 30
0.0
 11
-3.436065754185677
 21
2.415257726320903
 31
0.0
210
0.0
220
0.0
230
1.0
 40
0.7886751345948614
 41
3.1415919733843
 42
6.283185987389155
  0
ELLIPSE
  5
D4
330
1F
100
AcDbEntity
  8
VISIBLE
  6
Continuous
 62
     7
100
AcDbEllipse
 10
248.1949515689162
 20
125.9194083797918
 30
0.0
 11
-3.436065754185677
 21
2.415257726320903
 31
0.0
210
0.0
220
0.0
230
1.0
 40
0.7886751345948614
 41
2.022767850809007
 42
3.1415919733843
  0
LINE
  5
D5
330
1F
100
AcDbEntity
  8
VISIBLE
  6
Continuous
 62
     7
100
AcDbLine
 10
239.2242155647221
 20
141.4728816210032
 30
0.0
 11
247.9175480012901
 21
139.1435102150947
 31
0.0
  0
LINE
  5
D6
330
1F
100
AcDbEntity
  8
VISIBLE
  6
Continuous
 62
     7
100
AcDbLine
 10
259.899376050127
 20
63.64793960205873
 30
0.0
 11
259.899376050127
 21
82.14995954687612
 31
0.0
  0
LINE
  5
D7
330
1F
100
AcDbEntity
  8
VISIBLE
  6
Continuous
 62
     7
100
AcDbLine
 10
261.7940629599412
 20
121.8808905958511
 30
0.0
 11
274.041511673862
 21
90.31492535615374
 31
0.0
  0
LINE
  5
D8
330
1F
100
AcDbEntity
  8
VISIBLE
  6
Continuous
 62
     7
100
AcDbLine
 10
262.695179059515
 20
75.06005619326277
 30
0.0
 11
264.9074137556947
 21
78.80411213811055
 31
0.0
  0
ELLIPSE
  5
D9
330
1F
100
AcDbEntity
  8
VISIBLE
  6
Continuous
 62
     7
100
AcDbEllipse
 10
245.4654469197085
 20
97.19070150960383
 30
0.0
 11
-2.100000894455007
 21
3.63730824513614
 31
0.0
210
0.0
220
0.0
230
0.9999999999999998
 40
0.5773502691896286
 41
-0.0000005235327118
 42
0.7853973184478048
  0
ELLIPSE
  5
DA
330
1F
100
AcDbEntity
  8
VISIBLE
  6
Continuous
 62
     7
100
AcDbEllipse
 10
245.4654469197085
 20
97.19070150960383
 30
0.0
 11
-2.100000894455007
 21
3.63730824513614
 31
0.0
210
0.0
220
0.0
230
0.9999999999999998
 40
0.5773502691896286
 41
3.926991661910681
 42
6.283184783646875
  0
LINE
  5
DB
330
1F
100
AcDbEntity
  8
VISIBLE
  6
Continuous
 62
     7
100
AcDbLine
 10
233.7754123775503
 20
130.9785444058604
 30
0.0
 11
225.0820799409823
 21
133.3079158117689
 31
0.0
  0
LINE
  5
DC
330
1F
100
AcDbEntity
  8
VISIBLE
  6
Continuous
 62
     7
100
AcDbLine
 10
259.899376050127
 20
82.14995954687612
 30
0.0
 11
247.6519273362063
 21
113.7159247865735
 31
0.0
  0
LINE
  5
DD
330
1F
100
AcDbEntity
  8
VISIBLE
  6
Continuous
 62
     7
100
AcDbLine
 10
247.9175480012813
 20
139.1435102151377
 30
0.0
 11
261.7940629599584
 21
121.8808905958755
 31
0.0
  0
ELLIPSE
  5
DE
330
1F
100
AcDbEntity
  8
VISIBLE
  6
Continuous
 62
     7
100
AcDbEllipse
 10
241.9443052296415
 20
106.674168582324
 30
0.0
 11
0.8500003620400206
 21
-1.47224381350523
 31
0.0
210
0.0
220
0.0
230
0.9999999999999999
 40
0.5773502691896177
 41
-0.0000004670067644
 42
0.7853976074800432
  0
ELLIPSE
  5
DF
330
1F
100
AcDbEntity
  8
VISIBLE
  6
Continuous
 62
     7
100
AcDbEllipse
 10
241.9443052296415
 20
106.674168582324
 30
0.0
 11
0.8500003620400206
 21
-1.47224381350523
 31
0.0
210
0.0
220
0.0
230
0.9999999999999999
 40
0.5773502691896177
 41
-2.356193934298472
 42
-0.0000004670067644
  0
ELLIPSE
  5
E0
330
1F
100
AcDbEntity
  8
VISIBLE
  6
Continuous
 62
     7
100
AcDbEllipse
 10
241.9443052296415
 20
106.6741666378945
 30
0.0
 11
-0.8500003620399923
 21
1.472243813505216
 31
0.0
210
0.0
220
0.0
230
1.0
 40
0.5773502691896225
 41
-0.0000005235420035
 42
0.7853973184507627
  0
ELLIPSE
  5
E1
330
1F
100
AcDbEntity
  8
VISIBLE
  6
Continuous
 62
     7
100
AcDbEllipse
 10
241.9443052296415
 20
106.6741666378945
 30
0.0
 11
-0.8500003620399923
 21
1.472243813505216
 31
0.0
210
0.0
220
0.0
230
1.0
 40
0.5773502691896225
 41
3.92699166191041
 42
6.283184783637576
  0
LINE
  5
E2
330
1F
100
AcDbEntity
  8
VISIBLE
  6
Continuous
 62
     7
100
AcDbLine
 10
235.6243104360673
 20
100.394212660932
 30
0.0
 11
238.6861726145313
 21
92.50272135104952
 31
0.0
  0
ELLIPSE
  5
E3
330
1F
100
AcDbEntity
  8
VISIBLE
  6
Continuous
 62
     7
100
AcDbEllipse
 10
249.2927737433171
 20
87.73458943891451
 30
0.0
 11
-0.8500002507900034
 21
1.472243620814567
 31
0.0
210
0.0
220
0.0
230
1.0
 40
0.5773502691896285
 41
3.141592816967663
 42
5.497786653801671
  0
ELLIPSE
  5
E4
330
1F
100
AcDbEntity
  8
VISIBLE
  6
Continuous
 62
     7
100
AcDbEllipse
 10
249.2927737433171
 20
87.73458943891451
 30
0.0
 11
-0.8500002507900034
 21
1.472243620814567
 31
0.0
210
0.0
220
0.0
230
1.0
 40
0.5773502691896285
 41
2.356194980185508
 42
3.141592816967663
  0
LINE
  5
E5
330
1F
100
AcDbEntity
  8
VISIBLE
  6
Continuous
 62
     7
100
AcDbLine
 10
247.6519273362103
 20
113.7159247865739
 30
0.0
 11
261.7940629599412
 21
121.8808905958512
 31
0.0
  0
LINE
  5
E6
330
1F
100
AcDbEntity
  8
VISIBLE
  6
Continuous
 62
     7
100
AcDbLine
 10
274.0415116738579
 20
90.31492535615338
 30
0.0
 11
274.0415116738579
 21
71.812905411336
 31
0.0
  0
LINE
  5
E7
330
1F
100
AcDbEntity
  8
VISIBLE
  6
Continuous
 62
     7
100
AcDbLine
 10
238.6861726145306
 20
75.89538831597463
 30
0.0
 11
245.0501336452095
 21
64.87268447345033
 31
0.0
  0
LINE
  5
E8
330
1F
100
AcDbEntity
  8
VISIBLE
  6
Continuous
 62
     7
100
AcDbLine
 10
223.1688106597521
 20
115.8890653271919
 30
0.0
 11
235.6243104360543
 21
100.3942126609135
 31
0.0
  0
LINE
  5
E9
330
1F
100
AcDbEntity
  8
VISIBLE
  6
Continuous
 62
     7
100
AcDbLine
 10
264.907413755702
 20
73.8704688431279
 30
0.0
 11
262.6951790595223
 21
75.06005619327568
 31
0.0
  0
LINE
  5
EA
330
1F
100
AcDbEntity
  8
VISIBLE
  6
Continuous
 62
     7
100
AcDbLine
 10
253.5354150194481
 20
59.97370498788397
 30
0.0
 11
259.899376050127
 21
63.64793960205873
 31
0.0
  0
LINE
  5
EB
330
1F
100
AcDbEntity
  8
VISIBLE
  6
Continuous
 62
     7
100
AcDbLine
 10
225.0820799409911
 20
133.3079158117259
 30
0.0
 11
220.8394392538743
 21
127.2721241802783
 31
0.0
  0
LINE
  5
EC
330
1F
100
AcDbEntity
  8
VISIBLE
  6
Continuous
 62
     7
100
AcDbLine
 10
238.6861726145306
 20
92.50272135104944
 30
0.0
 11
238.6861726145306
 21
75.89538831597463
 31
0.0
  0
ELLIPSE
  5
ED
330
1F
100
AcDbEntity
  8
VISIBLE
  6
Continuous
 62
     7
100
AcDbEllipse
 10
249.2927736895151
 20
69.77165643846092
 30
0.0
 11
2.100000454545011
 21
-3.637307483189687
 31
0.0
210
0.0
220
0.0
230
0.9999999999999999
 40
0.5773502691896277
 41
0.0000017802888837
 42
0.7854004646588528
  0
ELLIPSE
  5
EE
330
1F
100
AcDbEntity
  8
VISIBLE
  6
Continuous
 62
     7
100
AcDbEllipse
 10
249.2927736895151
 20
69.77165643846092
 30
0.0
 11
2.100000454545011
 21
-3.637307483189687
 31
0.0
210
0.0
220
0.0
230
0.9999999999999999
 40
0.5773502691896277
 41
-2.356196791428948
 42
0.0000017802888839
  0
ELLIPSE
  5
EF
330
1F
100
AcDbEntity
  8
VISIBLE
  6
Continuous
 62
     7
100
AcDbEllipse
 10
249.2927736895151
 20
69.7716626434267
 30
0.0
 11
-2.100000454540009
 21
3.637307483181019
 31
0.0
210
0.0
220
0.0
230
1.0
 40
0.5773502691896268
 41
-0.0000005008457903
 42
0.7853976715644356
  0
ELLIPSE
  5
F0
330
1F
100
AcDbEntity
  8
VISIBLE
  6
Continuous
 62
     7
100
AcDbEllipse
 10
249.2927736895151
 20
69.7716626434267
 30
0.0
 11
-2.100000454540009
 21
3.637307483181019
 31
0.0
210
0.0
220
0.0
230
1.0
 40
0.5773502691896268
 41
3.926991308844272
 42
6.283184806333796
  0
ELLIPSE
  5
F1
330
1F
100
AcDbEntity
  8
VISIBLE
  6
Continuous
 62
     7
100
AcDbEllipse
 10
266.9704460131528
 20
77.52838271980302
 30
0.0
 11
2.100001056644998
 21
3.637308526057466
 31
0.0
210
0.0
220
0.0
230
1.0
 40
0.5773502691896262
 41
0.0000005121801427
 42
1.55334355531542
  0
ELLIPSE
  5
F2
330
1F
100
AcDbEntity
  8
VISIBLE
  6
Continuous
 62
     7
100
AcDbEllipse
 10
266.9704460131528
 20
77.52838271980302
 30
0.0
 11
2.100001056644998
 21
3.637308526057466
 31
0.0
210
0.0
220
0.0
230
1.0
 40
0.5773502691896262
 41
3.159045425069272
 42
6.283185819359729
  0
ELLIPSE
  5
F3
330
1F
100
AcDbEntity
  8
VISIBLE
  6
Continuous
 62
     7
100
AcDbEllipse
 10
245.4654469197085
 20
97.19070631348595
 30
0.0
 11
2.100000894454979
 21
-3.63730824513614
 31
0.0
210
0.0
220
0.0
230
0.9999999999999999
 40
0.5773502691896214
 41
-0.0000004670096565
 42
0.7853976074810277
  0
ELLIPSE
  5
F4
330
1F
100
AcDbEntity
  8
VISIBLE
  6
Continuous
 62
     7
100
AcDbEllipse
 10
245.4654469197085
 20
97.19070631348595
 30
0.0
 11
2.100000894454979
 21
-3.63730824513614
 31
0.0
210
0.0
220
0.0
230
0.9999999999999999
 40
0.5773502691896214
 41
-2.356193934302098
 42
-0.0000004670096567
  0
ELLIPSE
  5
F5
330
1F
100
AcDbEntity
  8
VISIBLE
  6
Continuous
 62
     7
100
AcDbEllipse
 10
249.2927733733555
 20
87.73458965251197
 30
0.0
 11
0.8500002507900034
 21
-1.472243620814567
 31
0.0
210
0.0
220
0.0
230
1.0
 40
0.5773502691896285
 41
-3.141593034593096
 42
-0.7853973656368649
  0
ELLIPSE
  5
F6
330
1F
100
AcDbEntity
  8
VISIBLE
  6
Continuous
 62
     7
100
AcDbEllipse
 10
249.2927733733555
 20
87.73458965251197
 30
0.0
 11
0.8500002507900034
 21
-1.472243620814567
 31
0.0
210
0.0
220
0.0
230
1.0
 40
0.5773502691896285
 41
-3.926991614735128
 42
-3.141593034593096
  0
LINE
  5
F7
330
1F
100
AcDbEntity
  8
VISIBLE
  6
Continuous
 62
     7
100
AcDbLine
 10
220.8394392538718
 20
127.2721241802814
 30
0.0
 11
223.1688106597976
 21
115.8890653271797
 31
0.0
  0
LINE
  5
F8
330
1F
100
AcDbEntity
  8
VISIBLE
  6
Continuous
 62
     7
100
AcDbLine
 10
245.0501336452095
 20
64.87268447345033
 30
0.0
 11
253.5354150194481
 21
59.97370498788398
 31
0.0
  0
LINE
  5
F9
330
1F
100
AcDbEntity
  8
VISIBLE
  6
Continuous
 62
     7
100
AcDbLine
 10
243.9196846152785
 20
123.4510818532515
 30
0.0
 11
244.2818030758361
 21
127.0298920810304
 31
0.0
  0
ELLIPSE
  5
FA
330
1F
100
AcDbEntity
  8
VISIBLE
  6
Continuous
 62
     7
100
AcDbEllipse
 10
228.4721122877006
 20
123.4338071531126
 30
0.0
 11
-2.100000619600024
 21
3.637307769073331
 31
0.0
210
0.0
220
0.0
230
1.0
 40
0.5773502691896225
 41
0.0000007461494569
 42
0.7853989596591153
  0
ELLIPSE
  5
FB
330
1F
100
AcDbEntity
  8
VISIBLE
  6
Continuous
 62
     7
100
AcDbEllipse
 10
228.4721122877006
 20
123.4338071531126
 30
0.0
 11
-2.100000619600024
 21
3.637307769073331
 31
0.0
210
0.0
220
0.0
230
1.0
 40
0.5773502691896225
 41
3.926990020749375
 42
6.283186053329043
  0
LINE
  5
FC
330
1F
100
AcDbEntity
  8
VISIBLE
  6
Continuous
 62
     7
100
AcDbLine
 10
259.899376050127
 20
63.64793960205873
 30
0.0
 11
274.0415116738579
 21
71.81290541133598
 31
0.0
  0
LINE
  5
FD
330
1F
100
AcDbEntity
  8
VISIBLE
  6
Continuous
 62
     7
100
AcDbLine
 10
247.9820355471276
 20
122.4267402201696
 30
0.0
 11
243.9196846152878
 21
123.4510818532452
 31
0.0
  0
LINE
  5
FE
330
1F
100
AcDbEntity
  8
VISIBLE
  6
Continuous
 62
     7
100
AcDbLine
 10
274.0415116738579
 20
90.31492535615338
 30
0.0
 11
259.899376050127
 21
82.14995954687612
 31
0.0
  0
ELLIPSE
  5
FF
330
1F
100
AcDbEntity
  8
VISIBLE
  6
Continuous
 62
     7
100
AcDbEllipse
 10
228.4721122877006
 20
123.4338061084052
 30
0.0
 11
2.100000619600024
 21
-3.637307769073331
 31
0.0
210
0.0
220
0.0
230
1.0
 40
0.5773502691896225
 41
-0.000000530733494
 42
0.7853976718023582
  0
ELLIPSE
  5
100
330
1F
100
AcDbEntity
  8
VISIBLE
  6
Continuous
 62
     7
100
AcDbEllipse
 10
228.4721122877006
 20
123.4338061084052
 30
0.0
 11
2.100000619600024
 21
-3.637307769073331
 31
0.0
210
0.0
220
0.0
230
1.0
 40
0.5773502691896225
 41
-2.356193998573445
 42
-0.000000530733494
  0
LINE
  5
101
330
1F
100
AcDbEntity
  8
VISIBLE
  6
Continuous
 62
     7
100
AcDbLine
 10
247.6519273362103
 20
113.7159247865739
 30
0.0
 11
233.7754123775332
 21
130.978544405836
 31
0.0
  0
LINE
  5
102
330
1F
100
AcDbEntity
  8
VISIBLE
  6
Continuous
 62
     7
100
AcDbLine
 10
225.0820799409911
 20
133.3079158117259
 30
0.0
 11
239.2242155647221
 21
141.4728816210032
 31
0.0
  0
LINE
  5
103
330
1F
100
AcDbEntity
  8
VISIBLE
  6
Continuous
 62
     7
100
AcDbLine
 10
247.9175480012813
 20
139.1435102151377
 30
0.0
 11
233.7754123775503
 21
130.9785444058604
 31
0.0
  0
LINE
  5
104
330
1F
100
AcDbEntity
  8
TANGENT EDGES
  6
Continuous
 62
     7
100
AcDbLine
 10
241.9443038047962
 20
108.0622122393143
 30
0.0
 11
240.7422228032592
 21
107.3681904231781
 31
0.0
  0
LINE
  5
105
330
1F
100
AcDbEntity
  8
TANGENT EDGES
  6
Continuous
 62
     7
100
AcDbLine
 10
264.907413755702
 20
73.8704688431279
 30
0.0
 11
262.7337937597815
 21
75.12540893288856
 31
0.0
  0
LINE
  5
106
330
1F
100
AcDbEntity
  8
TANGENT EDGES
  6
Continuous
 62
     7
100
AcDbLine
 10
245.4654433167805
 20
100.6199906902881
 30
0.0
 11
242.4955971737766
 21
98.90534905957549
 31
0.0
  0
LINE
  5
107
330
1F
100
AcDbEntity
  8
TANGENT EDGES
  6
Continuous
 62
     7
100
AcDbLine
 10
249.2927714831421
 20
73.20095029943295
 30
0.0
 11
246.3229245657162
 21
71.48630900569158
 31
0.0
  0
LINE
  5
108
330
1F
100
AcDbEntity
  8
TANGENT EDGES
  6
Continuous
 62
     7
100
AcDbLine
 10
228.4721145902863
 20
126.863092475412
 30
0.0
 11
225.502262823252
 21
125.1484478102544
 31
0.0
  0
LINE
  5
109
330
1F
100
AcDbEntity
  8
TANGENT EDGES
  6
Continuous
 62
     7
100
AcDbLine
 10
249.292774332329
 20
86.34654445166527
 30
0.0
 11
250.4948556260047
 21
87.04056641867489
 31
0.0
  0
INSERT
  5
10B
330
1F
100
AcDbEntity
  8
DIMENSIONS
100
AcDbBlockReference
  2
BLOCK1
 10
0.0
 20
0.0
 30
0.0
  0
INSERT
  5
11A
330
1F
100
AcDbEntity
  8
DIMENSIONS
100
AcDbBlockReference
  2
BLOCK2
 10
0.0
 20
0.0
 30
0.0
  0
INSERT
  5
129
330
1F
100
AcDbEntity
  8
DIMENSIONS
100
AcDbBlockReference
  2
BLOCK3
 10
0.0
 20
0.0
 30
0.0
  0
INSERT
  5
138
330
1F
100
AcDbEntity
  8
DIMENSIONS
100
AcDbBlockReference
  2
BLOCK4
 10
0.0
 20
0.0
 30
0.0
  0
INSERT
  5
147
330
1F
100
AcDbEntity
  8
DIMENSIONS
100
AcDbBlockReference
  2
BLOCK5
 10
0.0
 20
0.0
 30
0.0
  0
INSERT
  5
156
330
1F
100
AcDbEntity
  8
DIMENSIONS
100
AcDbBlockReference
  2
BLOCK6
 10
0.0
 20
0.0
 30
0.0
  0
INSERT
  5
165
330
1F
100
AcDbEntity
  8
DIMENSIONS
100
AcDbBlockReference
  2
BLOCK7
 10
0.0
 20
0.0
 30
0.0
  0
INSERT
  5
174
330
1F
100
AcDbEntity
  8
DIMENSIONS
100
AcDbBlockReference
  2
BLOCK8
 10
0.0
 20
0.0
 30
0.0
  0
INSERT
  5
183
330
1F
100
AcDbEntity
  8
DIMENSIONS
100
AcDbBlockReference
  2
BLOCK9
 10
0.0
 20
0.0
 30
0.0
  0
INSERT
  5
192
330
1F
100
AcDbEntity
  8
DIMENSIONS
100
AcDbBlockReference
  2
BLOCK10
 10
0.0
 20
0.0
 30
0.0
  0
INSERT
  5
1A1
330
1F
100
AcDbEntity
  8
DIMENSIONS
100
AcDbBlockReference
  2
BLOCK11
 10
0.0
 20
0.0
 30
0.0
  0
INSERT
  5
1B0
330
1F
100
AcDbEntity
  8
DIMENSIONS
100
AcDbBlockReference
  2
BLOCK12
 10
0.0
 20
0.0
 30
0.0
  0
INSERT
  5
1BF
330
1F
100
AcDbEntity
  8
DIMENSIONS
100
AcDbBlockReference
  2
BLOCK13
 10
0.0
 20
0.0
 30
0.0
  0
INSERT
  5
1CE
330
1F
100
AcDbEntity
  8
DIMENSIONS
100
AcDbBlockReference
  2
BLOCK14
 10
0.0
 20
0.0
 30
0.0
  0
INSERT
  5
1DD
330
1F
100
AcDbEntity
  8
DIMENSIONS
100
AcDbBlockReference
  2
BLOCK15
 10
0.0
 20
0.0
 30
0.0
  0
INSERT
  5
1EC
330
1F
100
AcDbEntity
  8
DIMENSIONS
100
AcDbBlockReference
  2
BLOCK16
 10
0.0
 20
0.0
 30
0.0
  0
INSERT
  5
1FB
330
1F
100
AcDbEntity
  8
DIMENSIONS
100
AcDbBlockReference
  2
BLOCK17
 10
0.0
 20
0.0
 30
0.0
  0
INSERT
  5
20A
330
1F
100
AcDbEntity
  8
DIMENSIONS
100
AcDbBlockReference
  2
BLOCK18
 10
0.0
 20
0.0
 30
0.0
  0
INSERT
  5
219
330
1F
100
AcDbEntity
  8
DIMENSIONS
100
AcDbBlockReference
  2
BLOCK19
 10
0.0
 20
0.0
 30
0.0
  0
INSERT
  5
228
330
1F
100
AcDbEntity
  8
DIMENSIONS
100
AcDbBlockReference
  2
BLOCK20
 10
0.0
 20
0.0
 30
0.0
  0
INSERT
  5
237
330
1F
100
AcDbEntity
  8
DIMENSIONS
100
AcDbBlockReference
  2
BLOCK21
 10
0.0
 20
0.0
 30
0.0
  0
INSERT
  5
246
330
1F
100
AcDbEntity
  8
DIMENSIONS
100
AcDbBlockReference
  2
BLOCK22
 10
0.0
 20
0.0
 30
0.0
  0
INSERT
  5
255
330
1F
100
AcDbEntity
  8
DIMENSIONS
100
AcDbBlockReference
  2
BLOCK23
 10
0.0
 20
0.0
 30
0.0
  0
INSERT
  5
264
330
1F
100
AcDbEntity
  8
DIMENSIONS
100
AcDbBlockReference
  2
BLOCK24
 10
0.0
 20
0.0
 30
0.0
  0
INSERT
  5
273
330
1F
100
AcDbEntity
  8
DIMENSIONS
100
AcDbBlockReference
  2
BLOCK25
 10
0.0
 20
0.0
 30
0.0
  0
INSERT
  5
282
330
1F
100
AcDbEntity
  8
DIMENSIONS
100
AcDbBlockReference
  2
BLOCK26
 10
0.0
 20
0.0
 30
0.0
  0
INSERT
  5
292
330
1F
100
AcDbEntity
  8
CONTINUOUS
100
AcDbBlockReference
  2
BLOCK27
 10
0.0
 20
0.0
 30
0.0
  0
ENDSEC
  0
SECTION
  2
OBJECTS
  0
DICTIONARY
  5
C
330
0
100
AcDbDictionary
281
     1
  3
ACAD_GROUP
350
D
  3
ACAD_LAYOUT
350
1A
  3
ACAD_MLEADERSTYLE
350
2E1
  3
ACAD_MLINESTYLE
350
17
  3
ACAD_PLOTSETTINGS
350
19
  3
ACAD_PLOTSTYLENAME
350
E
  3
ACAD_SCALELIST
350
3B
  3
ACAD_TABLESTYLE
350
2E0
  3
ACAD_VISUALSTYLE
350
2A
  0
DICTIONARY
  5
D
102
{ACAD_REACTORS
330
C
102
}
330
C
100
AcDbDictionary
281
     1
  0
DICTIONARY
  5
1A
102
{ACAD_REACTORS
330
C
102
}
330
C
100
AcDbDictionary
281
     1
  3
Layout1
350
1E
  3
Layout2
350
26
  3
Model
350
22
  0
DICTIONARY
  5
2E1
102
{ACAD_REACTORS
330
C
102
}
330
C
100
AcDbDictionary
281
     1
  0
DICTIONARY
  5
17
102
{ACAD_REACTORS
330
C
102
}
330
C
100
AcDbDictionary
281
     1
  3
Standard
350
18
  0
DICTIONARY
  5
19
102
{ACAD_REACTORS
330
C
102
}
330
C
100
AcDbDictionary
281
     1
  0
ACDBDICTIONARYWDFLT
  5
E
102
{ACAD_REACTORS
330
C
102
}
330
C
100
AcDbDictionary
281
     1
  3
Normal
350
F
100
AcDbDictionaryWithDefault
340
F
  0
DICTIONARY
  5
3B
102
{ACAD_REACTORS
330
C
102
}
330
C
100
AcDbDictionary
281
     1
  3
A0
350
3C
  3
A1
350
3D
  3
A2
350
3E
  3
A3
350
3F
  3
A4
350
40
  3
A5
350
41
  3
A6
350
42
  3
A7
350
43
  3
A8
350
44
  3
A9
350
45
  3
B0
350
46
  3
B1
350
47
  3
B2
350
48
  3
B3
350
49
  3
B4
350
4A
  3
B5
350
4B
  3
B6
350
4C
  3
B7
350
4D
  3
B8
350
4E
  3
B9
350
4F
  3
C0
350
50
  3
C1
350
51
  3
C2
350
52
  3
C3
350
53
  3
C4
350
54
  3
C5
350
55
  3
C6
350
56
  3
C7
350
57
  3
C8
350
58
  3
C9
350
59
  3
D0
350
5A
  3
D1
350
5B
  3
D2
350
5C
  0
DICTIONARY
  5
2E0
102
{ACAD_REACTORS
330
C
102
}
330
C
100
AcDbDictionary
281
     1
  0
DICTIONARY
  5
2A
102
{ACAD_REACTORS
330
C
102
}
330
C
100
AcDbDictionary
281
     1
  3
2dWireframe
350
2F
  3
3D Hidden
350
31
  3
3dWireframe
350
30
  3
Basic
350
32
  3
Brighten
350
36
  3
ColorChange
350
3A
  3
Conceptual
350
34
  3
Dim
350
35
  3
Facepattern
350
39
  3
Flat
350
2B
  3
FlatWithEdges
350
2C
  3
Gouraud
350
2D
  3
GouraudWithEdges
350
2E
  3
Linepattern
350
38
  3
Realistic
350
33
  3
Thicken
350
37
  0
LAYOUT
  5
1E
102
{ACAD_REACTORS
330
1A
102
}
330
1A
100
AcDbPlotSettings
  1

  2
none_device
  4

  6

 40
0.0
 41
0.0
 42
0.0
 43
0.0
 44
0.0
 45
0.0
 46
0.0
 47
0.0
 48
0.0
 49
0.0
140
0.0
141
0.0
142
1.0
143
1.0
 70
   688
 72
     0
 73
     0
 74
     5
  7

 75
    16
 76
     0
 77
     2
 78
   300
147
1.0
148
0.0
149
0.0
100
AcDbLayout
  1
Layout1
 70
     1
 71
     1
 10
0.0
 20
0.0
 11
420.0
 21
297.0
 12
0.0
 22
0.0
 32
0.0
 14
1.000000000000000E+20
 24
1.000000000000000E+20
 34
1.000000000000000E+20
 15
-1.000000000000000E+20
 25
-1.000000000000000E+20
 35
-1.000000000000000E+20
146
0.0
 13
0.0
 23
0.0
 33
0.0
 16
1.0
 26
0.0
 36
0.0
 17
0.0
 27
1.0
 37
0.0
 76
     0
330
1B
  0
LAYOUT
  5
26
102
{ACAD_REACTORS
330
1A
102
}
330
1A
100
AcDbPlotSettings
  1

  2
none_device
  4

  6

 40
0.0
 41
0.0
 42
0.0
 43
0.0
 44
0.0
 45
0.0
 46
0.0
 47
0.0
 48
0.0
 49
0.0
140
0.0
141
0.0
142
1.0
143
1.0
 70
   688
 72
     0
 73
     0
 74
     5
  7

 75
    16
 76
     0
 77
     2
 78
   300
147
1.0
148
0.0
149
0.0
100
AcDbLayout
  1
Layout2
 70
     1
 71
     2
 10
0.0
 20
0.0
 11
0.0
 21
0.0
 12
0.0
 22
0.0
 32
0.0
 14
0.0
 24
0.0
 34
0.0
 15
0.0
 25
0.0
 35
0.0
146
0.0
 13
0.0
 23
0.0
 33
0.0
 16
1.0
 26
0.0
 36
0.0
 17
0.0
 27
1.0
 37
0.0
 76
     0
330
23
  0
LAYOUT
  5
22
102
{ACAD_REACTORS
330
1A
102
}
330
1A
100
AcDbPlotSettings
  1

  2
none_device
  4

  6

 40
0.0
 41
0.0
 42
0.0
 43
0.0
 44
0.0
 45
0.0
 46
0.0
 47
0.0
 48
0.0
 49
0.0
140
0.0
141
0.0
142
1.0
143
1.0
 70
  1712
 72
     0
 73
     0
 74
     0
  7

 75
     0
 76
     0
 77
     2
 78
   300
147
1.0
148
0.0
149
0.0
100
AcDbLayout
  1
Model
 70
     1
 71
     0
 10
0.0
 20
0.0
 11
420.0
 21
297.0
 12
0.0
 22
0.0
 32
0.0
 14
1.000000000000000E+20
 24
1.000000000000000E+20
 34
1.000000000000000E+20
 15
-1.000000000000000E+20
 25
-1.000000000000000E+20
 35
-1.000000000000000E+20
146
0.0
 13
0.0
 23
0.0
 33
0.0
 16
1.0
 26
0.0
 36
0.0
 17
0.0
 27
1.0
 37
0.0
 76
     0
330
1F
331
29
  0
MLINESTYLE
  5
18
102
{ACAD_REACTORS
330
17
102
}
330
17
100
AcDbMlineStyle
  2
Standard
 70
     0
  3

 62
   256
 51
90.0
 52
90.0
 71
     2
 49
0.5
 62
   256
  6
BYLAYER
 49
-0.5
 62
   256
  6
BYLAYER
  0
ACDBPLACEHOLDER
  5
F
102
{ACAD_REACTORS
330
E
102
}
330
E
  0
SCALE
  5
3C
102
{ACAD_REACTORS
330
3B
102
}
330
3B
100
AcDbScale
 70
     0
300
1:1
140
1.0
141
1.0
290
     1
  0
SCALE
  5
3D
102
{ACAD_REACTORS
330
3B
102
}
330
3B
100
AcDbScale
 70
     0
300
1:2
140
1.0
141
2.0
290
     0
  0
SCALE
  5
3E
102
{ACAD_REACTORS
330
3B
102
}
330
3B
100
AcDbScale
 70
     0
300
1:4
140
1.0
141
4.0
290
     0
  0
SCALE
  5
3F
102
{ACAD_REACTORS
330
3B
102
}
330
3B
100
AcDbScale
 70
     0
300
1:5
140
1.0
141
5.0
290
     0
  0
SCALE
  5
40
102
{ACAD_REACTORS
330
3B
102
}
330
3B
100
AcDbScale
 70
     0
300
1:8
140
1.0
141
8.0
290
     0
  0
SCALE
  5
41
102
{ACAD_REACTORS
330
3B
102
}
330
3B
100
AcDbScale
 70
     0
300
1:10
140
1.0
141
10.0
290
     0
  0
SCALE
  5
42
102
{ACAD_REACTORS
330
3B
102
}
330
3B
100
AcDbScale
 70
     0
300
1:16
140
1.0
141
16.0
290
     0
  0
SCALE
  5
43
102
{ACAD_REACTORS
330
3B
102
}
330
3B
100
AcDbScale
 70
     0
300
1:20
140
1.0
141
20.0
290
     0
  0
SCALE
  5
44
102
{ACAD_REACTORS
330
3B
102
}
330
3B
100
AcDbScale
 70
     0
300
1:30
140
1.0
141
30.0
290
     0
  0
SCALE
  5
45
102
{ACAD_REACTORS
330
3B
102
}
330
3B
100
AcDbScale
 70
     0
300
1:40
140
1.0
141
40.0
290
     0
  0
SCALE
  5
46
102
{ACAD_REACTORS
330
3B
102
}
330
3B
100
AcDbScale
 70
     0
300
1:50
140
1.0
141
50.0
290
     0
  0
SCALE
  5
47
102
{ACAD_REACTORS
330
3B
102
}
330
3B
100
AcDbScale
 70
     0
300
1:100
140
1.0
141
100.0
290
     0
  0
SCALE
  5
48
102
{ACAD_REACTORS
330
3B
102
}
330
3B
100
AcDbScale
 70
     0
300
2:1
140
2.0
141
1.0
290
     0
  0
SCALE
  5
49
102
{ACAD_REACTORS
330
3B
102
}
330
3B
100
AcDbScale
 70
     0
300
4:1
140
4.0
141
1.0
290
     0
  0
SCALE
  5
4A
102
{ACAD_REACTORS
330
3B
102
}
330
3B
100
AcDbScale
 70
     0
300
8:1
140
8.0
141
1.0
290
     0
  0
SCALE
  5
4B
102
{ACAD_REACTORS
330
3B
102
}
330
3B
100
AcDbScale
 70
     0
300
10:1
140
10.0
141
1.0
290
     0
  0
SCALE
  5
4C
102
{ACAD_REACTORS
330
3B
102
}
330
3B
100
AcDbScale
 70
     0
300
100:1
140
100.0
141
1.0
290
     0
  0
SCALE
  5
4D
102
{ACAD_REACTORS
330
3B
102
}
330
3B
100
AcDbScale
 70
     0
300
1/128" = 1'-0"
140
0.0078125
141
12.0
290
     0
  0
SCALE
  5
4E
102
{ACAD_REACTORS
330
3B
102
}
330
3B
100
AcDbScale
 70
     0
300
1/64" = 1'-0"
140
0.015625
141
12.0
290
     0
  0
SCALE
  5
4F
102
{ACAD_REACTORS
330
3B
102
}
330
3B
100
AcDbScale
 70
     0
300
1/32" = 1'-0"
140
0.03125
141
12.0
290
     0
  0
SCALE
  5
50
102
{ACAD_REACTORS
330
3B
102
}
330
3B
100
AcDbScale
 70
     0
300
1/16" = 1'-0"
140
0.0625
141
12.0
290
     0
  0
SCALE
  5
51
102
{ACAD_REACTORS
330
3B
102
}
330
3B
100
AcDbScale
 70
     0
300
3/32" = 1'-0"
140
0.09375
141
12.0
290
     0
  0
SCALE
  5
52
102
{ACAD_REACTORS
330
3B
102
}
330
3B
100
AcDbScale
 70
     0
300
1/8" = 1'-0"
140
0.125
141
12.0
290
     0
  0
SCALE
  5
53
102
{ACAD_REACTORS
330
3B
102
}
330
3B
100
AcDbScale
 70
     0
300
3/16" = 1'-0"
140
0.1875
141
12.0
290
     0
  0
SCALE
  5
54
102
{ACAD_REACTORS
330
3B
102
}
330
3B
100
AcDbScale
 70
     0
300
1/4" = 1'-0"
140
0.25
141
12.0
290
     0
  0
SCALE
  5
55
102
{ACAD_REACTORS
330
3B
102
}
330
3B
100
AcDbScale
 70
     0
300
3/8" = 1'-0"
140
0.375
141
12.0
290
     0
  0
SCALE
  5
56
102
{ACAD_REACTORS
330
3B
102
}
330
3B
100
AcDbScale
 70
     0
300
1/2" = 1'-0"
140
0.5
141
12.0
290
     0
  0
SCALE
  5
57
102
{ACAD_REACTORS
330
3B
102
}
330
3B
100
AcDbScale
 70
     0
300
3/4" = 1'-0"
140
0.75
141
12.0
290
     0
  0
SCALE
  5
58
102
{ACAD_REACTORS
330
3B
102
}
330
3B
100
AcDbScale
 70
     0
300
1" = 1'-0"
140
1.0
141
12.0
290
     0
  0
SCALE
  5
59
102
{ACAD_REACTORS
330
3B
102
}
330
3B
100
AcDbScale
 70
     0
300
1-1/2" = 1'-0"
140
1.5
141
12.0
290
     0
  0
SCALE
  5
5A
102
{ACAD_REACTORS
330
3B
102
}
330
3B
100
AcDbScale
 70
     0
300
3" = 1'-0"
140
3.0
141
12.0
290
     0
  0
SCALE
  5
5B
102
{ACAD_REACTORS
330
3B
102
}
330
3B
100
AcDbScale
 70
     0
300
6" = 1'-0"
140
6.0
141
12.0
290
     0
  0
SCALE
  5
5C
102
{ACAD_REACTORS
330
3B
102
}
330
3B
100
AcDbScale
 70
     0
300
1'-0" = 1'-0"
140
12.0
141
12.0
290
     0
  0
VISUALSTYLE
  5
2F
102
{ACAD_REACTORS
330
2A
102
}
330
2A
100
AcDbVisualStyle
  2
2dWireframe
 70
     4
 71
     0
 72
     2
 73
     0
 90
        0
 40
-0.6
 41
-30.0
 62
     5
 63
     7
421
 16777215
 74
     1
 91
        4
 64
     7
 65
   257
 75
     1
175
     1
 42
1.0
 92
        0
 66
   257
 43
1.0
 76
     1
 77
     6
 78
     2
 67
     7
 79
     5
170
     0
171
     0
290
     0
174
     0
 93
        1
 44
0.0
173
     0
291
     0
 45
0.0
  0
VISUALSTYLE
  5
31
102
{ACAD_REACTORS
330
2A
102
}
330
2A
100
AcDbVisualStyle
  2
3D Hidden
 70
     6
 71
     1
 72
     2
 73
     2
 90
        0
 40
-0.6
 41
-30.0
 62
     5
 63
     7
421
 16777215
 74
     2
 91
        2
 64
     7
 65
   257
 75
     2
175
     1
 42
40.0
 92
        0
 66
   257
 43
1.0
 76
     1
 77
     6
 78
     2
 67
     7
 79
     3
170
     0
171
     0
290
     0
174
     0
 93
        1
 44
0.0
173
     0
291
     0
 45
0.0
  0
VISUALSTYLE
  5
30
102
{ACAD_REACTORS
330
2A
102
}
330
2A
100
AcDbVisualStyle
  2
3dWireframe
 70
     5
 71
     0
 72
     2
 73
     0
 90
        0
 40
-0.6
 41
-30.0
 62
     5
 63
     7
421
 16777215
 74
     1
 91
        4
 64
     7
 65
   257
 75
     1
175
     1
 42
1.0
 92
        0
 66
   257
 43
1.0
 76
     1
 77
     6
 78
     2
 67
     7
 79
     5
170
     0
171
     0
290
     0
174
     0
 93
        1
 44
0.0
173
     0
291
     0
 45
0.0
  0
VISUALSTYLE
  5
32
102
{ACAD_REACTORS
330
2A
102
}
330
2A
100
AcDbVisualStyle
  2
Basic
 70
     7
 71
     1
 72
     0
 73
     1
 90
        0
 40
-0.6
 41
-30.0
 62
     5
 63
     7
421
 16777215
 74
     0
 91
        4
 64
     7
 65
   257
 75
     1
175
     1
 42
1.0
 92
        8
 66
     7
 43
1.0
 76
     1
 77
     6
 78
     2
 67
     7
 79
     5
170
     0
171
     0
290
     0
174
     0
 93
        1
 44
0.0
173
     0
291
     1
 45
0.0
  0
VISUALSTYLE
  5
36
102
{ACAD_REACTORS
330
2A
102
}
330
2A
100
AcDbVisualStyle
  2
Brighten
 70
    12
 71
     2
 72
     2
 73
     0
 90
        0
 40
-0.6
 41
-30.0
 62
     5
 63
     7
421
 16777215
 74
     1
 91
        4
 64
     7
 65
   257
 75
     1
175
     1
 42
1.0
 92
        8
 66
     7
 43
1.0
 76
     1
 77
     6
 78
     2
 67
     7
 79
     5
170
     0
171
     0
290
     0
174
     0
 93
        1
 44
50.0
173
     0
291
     1
 45
0.0
  0
VISUALSTYLE
  5
3A
102
{ACAD_REACTORS
330
2A
102
}
330
2A
100
AcDbVisualStyle
  2
ColorChange
 70
    16
 71
     2
 72
     2
 73
     3
 90
        0
 40
-0.6
 41
-30.0
 62
     5
 63
     8
421
  8421504
 74
     1
 91
        4
 64
     7
 65
   257
 75
     1
175
     1
 42
1.0
 92
        8
 66
     8
424
  8421504
 43
1.0
 76
     1
 77
     6
 78
     2
 67
     7
 79
     5
170
     0
171
     0
290
     0
174
     0
 93
        1
 44
0.0
173
     0
291
     1
 45
0.0
  0
VISUALSTYLE
  5
34
102
{ACAD_REACTORS
330
2A
102
}
330
2A
100
AcDbVisualStyle
  2
Conceptual
 70
     9
 71
     3
 72
     2
 73
     0
 90
        0
 40
-0.6
 41
-30.0
 62
     5
 63
     7
421
 16777215
 74
     2
 91
        2
 64
     7
 65
   257
 75
     1
175
     1
 42
40.0
 92
        8
 66
     7
 43
1.0
 76
     1
 77
     6
 78
     2
 67
     7
 79
     3
170
     0
171
     0
290
     0
174
     0
 93
        1
 44
0.0
173
     0
291
     0
 45
0.0
  0
VISUALSTYLE
  5
35
102
{ACAD_REACTORS
330
2A
102
}
330
2A
100
AcDbVisualStyle
  2
Dim
 70
    11
 71
     2
 72
     2
 73
     0
 90
        0
 40
-0.6
 41
-30.0
 62
     5
 63
     7
421
 16777215
 74
     1
 91
        4
 64
     7
 65
   257
 75
     1
175
     1
 42
1.0
 92
        8
 66
     7
 43
1.0
 76
     1
 77
     6
 78
     2
 67
     7
 79
     5
170
     0
171
     0
290
     0
174
     0
 93
        1
 44
-50.0
173
     0
291
     1
 45
0.0
  0
VISUALSTYLE
  5
39
102
{ACAD_REACTORS
330
2A
102
}
330
2A
100
AcDbVisualStyle
  2
Facepattern
 70
    15
 71
     2
 72
     2
 73
     0
 90
        0
 40
-0.6
 41
-30.0
 62
     5
 63
     7
421
 16777215
 74
     1
 91
        4
 64
     7
 65
   257
 75
     1
175
     1
 42
1.0
 92
        8
 66
     7
 43
1.0
 76
     1
 77
     6
 78
     2
 67
     7
 79
     5
170
     0
171
     0
290
     0
174
     0
 93
        1
 44
0.0
173
     0
291
     1
 45
0.0
  0
VISUALSTYLE
  5
2B
102
{ACAD_REACTORS
330
2A
102
}
330
2A
100
AcDbVisualStyle
  2
Flat
 70
     0
 71
     2
 72
     1
 73
     1
 90
        2
 40
-0.6
 41
30.0
 62
     5
 63
     7
421
 16777215
 74
     0
 91
        4
 64
     7
 65
   257
 75
     1
175
     1
 42
1.0
 92
        8
 66
     7
 43
1.0
 76
     1
 77
     6
 78
     2
 67
     7
 79
     5
170
     0
171
     0
290
     0
174
     0
 93
       13
 44
0.0
173
     0
291
     1
 45
0.0
  0
VISUALSTYLE
  5
2C
102
{ACAD_REACTORS
330
2A
102
}
330
2A
100
AcDbVisualStyle
  2
FlatWithEdges
 70
     1
 71
     2
 72
     1
 73
     1
 90
        2
 40
-0.6
 41
30.0
 62
     5
 63
     7
421
 16777215
 74
     1
 91
        4
 64
     7
 65
   257
 75
     1
175
     1
 42
1.0
 92
        0
 66
   257
 43
1.0
 76
     1
 77
     6
 78
     2
 67
     7
 79
     5
170
     0
171
     0
290
     0
174
     0
 93
       13
 44
0.0
173
     0
291
     1
 45
0.0
  0
VISUALSTYLE
  5
2D
102
{ACAD_REACTORS
330
2A
102
}
330
2A
100
AcDbVisualStyle
  2
Gouraud
 70
     2
 71
     2
 72
     2
 73
     1
 90
        2
 40
-0.6
 41
30.0
 62
     5
 63
     7
421
 16777215
 74
     0
 91
        4
 64
     7
 65
   257
 75
     1
175
     1
 42
1.0
 92
        0
 66
     7
 43
1.0
 76
     1
 77
     6
 78
     2
 67
     7
 79
     5
170
     0
171
     0
290
     0
174
     0
 93
       13
 44
0.0
173
     0
291
     1
 45
0.0
  0
VISUALSTYLE
  5
2E
102
{ACAD_REACTORS
330
2A
102
}
330
2A
100
AcDbVisualStyle
  2
GouraudWithEdges
 70
     3
 71
     2
 72
     2
 73
     1
 90
        2
 40
-0.6
 41
30.0
 62
     5
 63
     7
421
 16777215
 74
     1
 91
        4
 64
     7
 65
   257
 75
     1
175
     1
 42
1.0
 92
        0
 66
   257
 43
1.0
 76
     1
 77
     6
 78
     2
 67
     7
 79
     5
170
     0
171
     0
290
     0
174
     0
 93
       13
 44
0.0
173
     0
291
     1
 45
0.0
  0
VISUALSTYLE
  5
38
102
{ACAD_REACTORS
330
2A
102
}
330
2A
100
AcDbVisualStyle
  2
Linepattern
 70
    14
 71
     2
 72
     2
 73
     0
 90
        0
 40
-0.6
 41
-30.0
 62
     5
 63
     7
421
 16777215
 74
     1
 91
        4
 64
     7
 65
   257
 75
     7
175
     7
 42
1.0
 92
        8
 66
     7
 43
1.0
 76
     1
 77
     6
 78
     2
 67
     7
 79
     5
170
     0
171
     0
290
     0
174
     0
 93
        1
 44
0.0
173
     0
291
     1
 45
0.0
  0
VISUALSTYLE
  5
33
102
{ACAD_REACTORS
330
2A
102
}
330
2A
100
AcDbVisualStyle
  2
Realistic
 70
     8
 71
     2
 72
     2
 73
     0
 90
        0
 40
-0.6
 41
-30.0
 62
     5
 63
     7
421
 16777215
 74
     1
 91
        0
 64
     7
 65
   257
 75
     1
175
     1
 42
1.0
 92
        8
 66
     8
424
  7895160
 43
1.0
 76
     1
 77
     6
 78
     2
 67
     7
 79
     5
170
     0
171
     0
290
     0
174
     0
 93
       13
 44
0.0
173
     0
291
     0
 45
0.0
  0
VISUALSTYLE
  5
37
102
{ACAD_REACTORS
330
2A
102
}
330
2A
100
AcDbVisualStyle
  2
Thicken
 70
    13
 71
     2
 72
     2
 73
     0
 90
        0
 40
-0.6
 41
-30.0
 62
     5
 63
     7
421
 16777215
 74
     1
 91
        4
 64
     7
 65
   257
 75
     1
175
     1
 42
1.0
 92
       12
 66
     7
 43
1.0
 76
     1
 77
     6
 78
     2
 67
     7
 79
     5
170
     0
171
     0
290
     0
174
     0
 93
        1
 44
0.0
173
     0
291
     1
 45
0.0
  0
ENDSEC
  0
EOF
